» » »

It's So Simple Tabs (ver.1)

Artists:  A B C D E F G H I J K L M N O P Q R S T U V W X Y Z # 

It's So Simple Tabs (ver.1)

Saosin
Rating:
0/5 (0 votes)

Tabs too difficult? Try these video lessons and learn fast.
                CHORUS:
e|-----------------------------2222------|
B|-----------------------------2222------|
G|-----------------------------2222------|
D|-44444444-7777777-7-44444444-0000-2222-| x2
A|-44444444-7777777-7-44444444-0000-2222-|
E|-22222222-5555555-5-22222222-2222-0000-| 

POST-CHORUS:
e|----|
B|----|
G|----|
D|-4~-|
A|-4~-|
E|-2~-|

VERSE:
e|------2~----------------------------------22------|
B|------2~----------------------------------22------|
G|------2~----------------------------------22------|
D|-4~---0~---4~---2~---4444---7777---4444---00---22-|
A|-4~---0~---4~---2~---4444---7777---4444---00---22-|
E|-2~---2~---2~---0~---2222---5555---2222---22---00-|

PRE-CHORUS:
e|-2~--------2~------|
B|-2~--------2~------|
G|-2~--------2~------|
D|-0~---4~---0~---4~-|
A|-0~---4~---0~---4~-|
E|-2~---2~---2~---2~-|

CHORUS x2

POST-CHORUS

VERSE

PRE-CHORUS

CHORUS x2

BRIDGE: (no idea, so just play verse)
e|-?-|
B|-?-|
G|-?-|
D|-?-|
A|-?-|
E|-?-|

CHORUS x2

My first tab ever, so don't be too harsh :)

| /  slide up
| \  slide down
| h  hammer-on
| p  pull-off
| ~  vibrato
| +  harmonic
| x  Mute note
            
Tabs too difficult? Try these video lessons and learn fast.




comments powered by Disqus
↑ Back to top | Tablatures and chords are parodies/interpretations of the original songs. You may use it for private study, scholarship, research or language learning purposes only