>
 >
It's Far Better To Learn

It's Far Better To Learn Guitar Tabs

Saosin - It's Far Better To Learn chords, tabs, tablatures, lyrics

Guitar lessons | Add/correct | Request | Top 50 tabs Artists:  A B C D E F G H I J K L M N O P Q R S T U V W X Y Z 0-9

It's Far Better To Learn Guitar Tabs – Saosin

CD, Sheet music, Poster

Do you like It's Far Better To Learn? Share with your friends now
Bass TabsChordsTabs
Saosin- It's Far better To learn
Tuning- D (DADGBe)

                            --INTRO--

Guitar 1-
------------------5------5------8-----8----------------5------5--|
-6---6-5---6-5-6------6----5-6----5-6---6--5----6-5-6-------6----|
---7-----7----------7-------------------------7-----------7------|

Guitar 2 play same thing but come in at a different time

Then Both Guitars Play-

----------------------------------------|
----------------------------------------|
-------------------------------------|
--0-0--------000---------------------|
--0-0--------000---------------------|
--0-0--------000---------------------|
             ...


                            --VERSE--


Guitar 1 Play Intro Part

Guitar 2-

----------------------------|
----------------------------|
-----------3~-----5~--------|
---0~------3~-----5~--------|
---0~------1~-----3~--------|
---0~-----------------------|

                          --PRECHORUS--

Guitar 1

------------------------------------------------------------|
-10-10101010-10101010-1010---10--10101010--10-101010--/-----|
-10-10101010-10101010-1010---10--10101010--10-101010--/-----|
------------------------------------------------------------|
------------------------------------------------------------|
------------------------------------------------------------|


                            --CHORUS--

Both Guitars

------------3---------5------------------3--------5-------------------|
---0--------3---X16---5--X32----0--------3--X16---5--X16---5----------|
---0--X16---1---------3---------0--X16---1--------3--------5--X16-----|
---0----------------------------0--------------------------5----------|


                            --VERSE 2--


Add This To The Other Parts (Guitar 3)-

-------------------2------2-------5--------------2-------2-----|
--3---3-2----3-2-3------3----3-2----3-2----3-2-3-------3-------|
----5-----5-----------5-----------------5------------5---------|


                          --PRECHORUS 2--


Guitar 1 Play the same thing

Guitar 2 Play-

--------------------------------------------------|
--------------------------------------------------|
--------------------------------------------------|
--00---00----00~--------3-2-0---------------------|
--00---00----00~--------------------3--5----------|
--00---00----00~---------------3--5---------------|

                            --CHORUS 2--


Play Same Thing But Play it x2


                             --BRIDGE--
Part 1
------------------------------------------------------|
------------------------------------------------------|
------------------------------------------------------|
------------3----3--------3---------3-----3-----------|
------------------------------------------------------|
---00000000----0----00000----000000----0--------------|
   ........    .    .....    ......    .

-------------------------------------------------------|
-------------------------------------------------------|
-------------------------------------------------------|
-----------3-------------2----3--------3---------2---3-|
-------------------------------------------------------|
--0000000-----0000000000----0----00000----000000---0---|
  .......     ..........    .    .....    ......   .


-------------------------2---3------------------2--3------------|
----------------1111111----1----11111---33333333--3---333333----|
---0000000000---------------------------------------------------|
   ..........   .......    .    .....   ........  .   ......

Part 2

----------23-------23-----23---X2------------23-------23------23--|
-----1---------555----3-3------------3-1-3-5------555-----3-3-----|
-00----0-----0----------------------------------0-----------------|
 ..    .     .  .     . .            . . . .    .  .      . .

---------------------|
--10-X13-----/-------|
--10---------/-------|
---------------------|
---------------------|
---------------------|

                               --CHORUS--

                                --OUTRO--

Guitar 1-


----------------------------------------|
----------------------------------------|
----------------------------------------|
-----------23-------23-----23---X4------|
-----1----------555----3-3--------------|
--00----0-----0-------------------------|
  ..    .     .  .     . .

Guitar 2-

---------------------------------------------|
---10--X32------13-X16----8-X16----10/-------|
---10------------------------------10/-------|
---------------------------------------------|
---------------------------------------------|
---------------------------------------------|

Randomly At the end of the song-

---------------------|
---------------------|
---------------------|
---------9-10-9-7-9--|
--3-5-5--------------|
---------------------|
      .





Comments


Popular Saosin tabs & chords
Changing Chords
Its So Simple 3 Chords
Youre Not Alone 3 Chords
Youre Not Alone 5 Chords
Voices Drum Tabs
Come Close 2 Tabs
Follow And Feel Tabs
I Can Tell Tabs
I Can Tell 4 Tabs
I Wanna Hear Another Fast Song Tabs


Song lyrics



↑ Back to top | Tablatures and chords are parodies/interpretations of the original songs. You may use it for private study, scholarship, research or language learning purposes only
© 2014 AZChords.com Contact us | Privacy policy | DMCA | Add/correct tabs | Request tabs | Top 50 tabs