>
 >
I Can Tell

I Can Tell Guitar Tabs

Saosin - I Can Tell chords, tabs, tablatures, lyrics

Guitar lessons | Add/correct | Request | Top 50 tabs Artists:  A B C D E F G H I J K L M N O P Q R S T U V W X Y Z 0-9

I Can Tell Guitar Tabs – Saosin

CD, Sheet music, Poster

Do you like I Can Tell? Share with your friends now
Bass TabsBass Tabs v2ChordsTabsTabs v2Tabs v3Tabs v4Tabs v5Tabs v6Tabs v7UkuleleUkulele v2

I am almost absolutely sure this tab is right.

Intro Gtr. 1 
E---------------------------------------------------
B---------------------------------------------------
G-9-------7-------12-------9-------7-------12-------
D-x-(8x)--x-(4x)--x--(4x)--x-(8x)--x-(4x)--x---(4x)-
A-7-------5-------10-------7-------5-------10-------
D---------------------------------------------------

E-----------------------------------------
B-----------------------------------------
G-9-------10-------9-------7-------5------
D-x-(4x)--x--(8x)--x-(4x)--x-(8x)--x-(8x)-
A-7-------8--------7-------5-------3------
D-----------------------------------------

Intro Gtr. 2 
E------------------------------------------------
B------------------------------------------------
G------------------------------------9/7777/55/7-
D-7--------10--------3--------5------x/xxxx/xx/x-
A-7-(16x)--10-(16x)--3-(16x)--5-(8x)-7/5555/33/5-
D-7--------10--------3--------5------------------

E----------------------------------------------------
B----------------------------------------------------
G----------------------------------------------------
D-7--------10--------3--------5----------------------
A-7-(16x)--10-(16x)--3-(16x)--5-(8x)-3---2-3-5-3-2-3-
D-7--------10--------3--------5--------5-------------
                                     . . . . . . . .
Verse Gtr. 1 
E------------------------------------
B------------------------------------
G-5-(16)--0-(16x)--5-(8x)-5/7777/555-
D------------------------------------
A------------------------------------
D------------------------------------

E--------------------
B-7-(8x)--5/77-7/5-0-
D--------------------
A--------------------
D--------------------

E------------------------------------------
B------------------------------------------
G-5-(16x)--0-(16x)--5(16x)--0-(8x)--7-(8x)-
D------------------------------------------
A------------------------------------------
D------------------------------------------

Verse Gtr. 2 
E---------------------------------
B---------------------------------
G-0-4-5---------------------------
D-------0-2-3-0-3-5-0-2-3-0-2-3-0-
A---------------------------------
D---------------------------------

Pre-Chorus Gtr. 1 and Gtr. 2 
E---------------------------------
B---------------------------------
G-0-4-5---------------------------
D-------0-2-3-0-3-5-0-2-3-0-2-3-0-
A---------------------------------
D---------------------------------

Here is a guitar fill that takes you into the chorus
E---------------
B---------------
G---------------
D-5555-5555-5---
A-5555-5555-5---
D-5555-5555-5---

Chorus Gtr. 1 
E---------------------------------------------------
B---------------------------------------------------
G-9-------7-------12-------9-------7-------12-------
D-x-(8x)--x-(4x)--x--(4x)--x-(8x)--x-(4x)--x---(4x)-
A-7-------5-------10-------7-------5-------10-------
D---------------------------------------------------

E-----------------------------------------
B-----------------------------------------
G-9-------10-------9-------7-------5------
D-x-(4x)--x--(8x)--x-(4x)--x-(8x)--x-(8x)-
A-7-------8--------7-------5-------3------
D-----------------------------------------

Chorus Gtr. 2 (00:00-00:21)
E------------------------------------------------
B------------------------------------------------
G------------------------------------9/7777/55/7-
D-7--------10--------3--------5------x/xxxx/xx/x-
A-7-(16x)--10-(16x)--3-(16x)--5-(8x)-7/5555/33/5-
D-7--------10--------3--------5------------------

E----------------------------------------------------
B----------------------------------------------------
G----------------------------------------------------
D-7--------10--------3--------5----------------------
A-7-(16x)--10-(16x)--3-(16x)--5-(8x)-3---2-3-5-3-2-3-
D-7--------10--------3--------5--------5-------------
                                     . . . . . . . .

Interlude Gtr. 1
E-----------------
B-----5---8-------
G-4-5---5---5-4-5-
D-----------------
A-----------------
D-----------------

Here is a fill that takes guitar 1 into pre-chorus
E-------
B-----8-
G-4-5---
D-------
A-------
D-------

Interlude Gtr. 2
E-------------------
B-------------------
G-5-(16x)--4-(16x)--
D-------------------
A-------------------
D-------------------

Outro Gtr. 1

E----------------------------       x
B----------------------------       x 
G----------------------------       x
D-10--------5--------8-------       10
A-10-(32x)--5-(16x)--8-(16x)-       10
D-10--------5--------8-------end on 10

Outro Gtr. 2
E----------------------------       x
B----------------------------       x
G-12--------7--------10------       12
D-x--(32x)--x-(16x)--x--(16x)       x
A-10--------5--------8-------       10
D----------------------------end on x


Structure

Intro
Verse
Pre-Chorus
Verse2Chorus Fill
Chorus
Verse
Pre-Chorus
Verse2Chorus Fill
Chorus
Interlude
Pre-Chorus
Verse2Chorus Fill
Chorus
Outro





Comments


Popular Saosin tabs & chords
Its Far Better To Learn Bass Tabs
Ive Been Dying To Reach You Bass Tabs
Its So Simple Chords
Deep Down Tabs
Lost Symphonies 3 Tabs
No Angel Intro Tabs
Seven Years 4 Tabs
They Perch On Their Stilts Pointing And Daring Me To Break Custom Tabs
Collapse Ukulele
Ive Been Dying To Reach You 2 Ukulele


Song lyrics



↑ Back to top | Tablatures and chords are parodies/interpretations of the original songs. You may use it for private study, scholarship, research or language learning purposes only
© 2014 AZChords.com Contact us | Privacy policy | DMCA | Add/correct tabs | Request tabs | Top 50 tabs