>
 >
Follow And Feel 1

Follow And Feel 1 Guitar Tabs

Saosin - Follow And Feel 1 chords, tabs, tablatures, lyrics

Guitar lessons | Add/correct | Request | Top 50 tabs Artists:  A B C D E F G H I J K L M N O P Q R S T U V W X Y Z 0-9

Follow And Feel 1 Guitar Tabs – Saosin

CD, Sheet music, Poster

Do you like Follow And Feel 1? Share with your friends now
Bass TabsBass Tabs v2ChordsChords v2TabsTabs v2Tabs v3UkuleleUkulele v2
"Follow and Feel" - Saosin

[GUITAR ONE]

[Intro]
D---0~---|
A---0~---|
F---9~---|
C---9~---|
G---7~---|
D---0~---|

D---0--0--0--0-0-0-0--0--0--0-0-0-0-0-0-0---|
A---12-12-12-8-8-8-10-10-10-5-5-5-5-5-5-5---|
F-------------------------------------------|
C-------------------------------------------|
G-------------------------------------------|
D-------------------------------------------|

D---0--0--0--0-0-0-0--0--0--0--0--0--0--0--0--0----|
A---12-12-12-8-8-8-10-10-10-15-15-15-17-17-17-17---|
F--------------------------------------------------|
C--------------------------------------------------|
G--------------------------------------------------|
D--------------------------------------------------|

D---0--0--0--0-0-0-0--0--0--0-0-0-0-0-0-0---|
A---12-12-12-8-8-8-10-10-10-5-5-5-5-5-5-5---|
F-------------------------------------------|
C-------------------------------------------|
G-------------------------------------------|
D-------------------------------------------|

D---0--0--0--0-0-0-0--0--0--0--0--0--0--0--0--0----|
A---12-12-12-8-8-8-10-10-10-15-15-15-17-17-17-17---|
F--------------------------------------------------|
C--------------------------------------------------|
G--------------------------------------------------|
D--------------------------------------------------|


[Verse 1]
D------------------------------|
A------------------------------|
F---9~--------------------7~---|
C---X---------------------X----|
G---7~--------------------5~---|
D------------------------------|

D---------------------------------------------------------------------|
A---------------------------------------------------------------------|
F---9-9-9-9-9-9-9-9-9-9-9-9-9-9-9-9-9-9-9-9-9-9-9-9-9-9-9-9-9-9-9-9---|
C---X-X-X-X-X-X-X-X-X-X-X-X-X-X-X-X-X-X-X-X-X-X-X-X-X-X-X-X-X-X-X-X---|
G---7-7-7-7-7-7-7-7-7-7-7-7-7-7-7-7-7-7-7-7-7-7-7-7-7-7-7-7-7-7-7-7---|
D---------------------------------------------------------------------|

D---------------------------------------------------------------------|
A---------------------------------------------------------------------|
F---7-7-7-7-7-7-7-7-7-7-7-7-7-7-7-7-7-7-7-7-7-7-7-7-7-7-7-7-7-7-7-7---|
C---X-X-X-X-X-X-X-X-X-X-X-X-X-X-X-X-X-X-X-X-X-X-X-X-X-X-X-X-X-X-X-X---|
G---5-5-5-5-5-5-5-5-5-5-5-5-5-5-5-5-5-5-5-5-5-5-5-5-5-5-5-5-5-5-5-5---|
D---------------------------------------------------------------------|


[Pre-Chorus 1]
D---------------------------------------------------------------------|
A-----------------------------------8-8-8-8-8-8-8-8-8-7-7-7-7-7-7-7---|
F---9-9-9-9-9-9-9-9-9-9-9-9-9-9-9-9-x-x-x-x-x-x-x-x-x-x-x-x-x-x-x-x---|
C---7-7-7-7-7-7-7-7-7-7-7-7-7-7-7-7-7-7-7-7-7-7-7-7-7-7-7-7-7-7-7-7---|
G---7-7-7-7-7-7-7-7-7-7-7-7-7-7-7-7-7-7-7-7-7-7-7-7-7-7-7-7-7-7-7-7---|
D---5-5-5-5-5-5-5-5-5-5-5-5-5-5-5-5-5-5-5-5-5-5-5-5-5-5-5-5-5-5-5-5---|


[Chorus 1]
D----------------------------------------|
A----------------------------------------|
F----------------------------------------|
C---2-----5-----10-----2-----9------10---|
G---2-----5-----10-----2-----10-----10---|
D---0-----3-----8------0-----7------8----|

[Bridge]
D---0--0--0--0-0-0-0--0--0--0-0-0-0-0-0-0---|
A---12-12-12-8-8-8-10-10-10-5-5-5-5-5-5-5---|
F-------------------------------------------|
C-------------------------------------------|
G-------------------------------------------|
D-------------------------------------------|

D---0--0--0--0-0-0-0--0--0--0--0--0--0--0--0--0----|
A---12-12-12-8-8-8-10-10-10-15-15-15-17-17-17-17---|
F--------------------------------------------------|
C--------------------------------------------------|
G--------------------------------------------------|
D--------------------------------------------------|

D---0--0--0--0-0-0-0--0--0--0-0-0-0-0-0-0---|
A---12-12-12-8-8-8-10-10-10-5-5-5-5-5-5-5---|
F-------------------------------------------|
C-------------------------------------------|
G-------------------------------------------|
D-------------------------------------------|

D---0--0--0--0-0-0-0--0--0--0--0--0--0--0--0--0----|
A---12-12-12-8-8-8-10-10-10-15-15-15-17-17-17-17---|
F--------------------------------------------------|
C--------------------------------------------------|
G--------------------------------------------------|
D--------------------------------------------------|


[Verse 2]
D------------------------------|
A------------------------------|
F---9~--------------------7~---|
C---X---------------------X----|
G---7~--------------------5~---|
D------------------------------|

D---------------------------------------------------------------------|
A---------------------------------------------------------------------|
F---9-9-9-9-9-9-9-9-9-9-9-9-9-9-9-9-9-9-9-9-9-9-9-9-9-9-9-9-9-9-9-9---|
C---X-X-X-X-X-X-X-X-X-X-X-X-X-X-X-X-X-X-X-X-X-X-X-X-X-X-X-X-X-X-X-X---|
G---7-7-7-7-7-7-7-7-7-7-7-7-7-7-7-7-7-7-7-7-7-7-7-7-7-7-7-7-7-7-7-7---|
D---------------------------------------------------------------------|

D---------------------------------------------------------------------|
A---------------------------------------------------------------------|
F---7-7-7-7-7-7-7-7-7-7-7-7-7-7-7-7-7-7-7-7-7-7-7-7-7-7-7-7-7-7-7-7---|
C---X-X-X-X-X-X-X-X-X-X-X-X-X-X-X-X-X-X-X-X-X-X-X-X-X-X-X-X-X-X-X-X---|
G---5-5-5-5-5-5-5-5-5-5-5-5-5-5-5-5-5-5-5-5-5-5-5-5-5-5-5-5-5-5-5-5---|
D---------------------------------------------------------------------|


[Pre-Chorus 2]
D---------------------------------------------------------------------|
A-----------------------------------8-8-8-8-8-8-8-8-8-7-7-7-7-7-7-7---|
F---9-9-9-9-9-9-9-9-9-9-9-9-9-9-9-9-x-x-x-x-x-x-x-x-x-x-x-x-x-x-x-x---|
C---7-7-7-7-7-7-7-7-7-7-7-7-7-7-7-7-7-7-7-7-7-7-7-7-7-7-7-7-7-7-7-7---|
G---7-7-7-7-7-7-7-7-7-7-7-7-7-7-7-7-7-7-7-7-7-7-7-7-7-7-7-7-7-7-7-7---|
D---5-5-5-5-5-5-5-5-5-5-5-5-5-5-5-5-5-5-5-5-5-5-5-5-5-5-5-5-5-5-5-5---|


[Chorus 2]
D----------------------------------------|
A----------------------------------------|
F----------------------------------------|
C---2-----5-----10-----2-----9------10---|
G---2-----5-----10-----2-----10-----10---|
D---0-----3-----8------0-----7------8----|


[Bridge]
D----------------------------------------------------------|
A----------------------------------------------------------|
F----------7~-------------------------7~-------------------|
C---2~-----7~-----10~----------2~-----7~-----10~-----10~---|
G---2~-----5~-----10~----------2~-----5~-----10~-----10~---|
D---0~------------8~-----------0~------------8~------8~----|

D----------------------------------------------------------------|
A----------------------------------------------------------------|
F---------7-----------------------7------------------------------|
C---2-----7-----10----------2-----7-----10-----------------------|
G---2-----5-----10----------2-----5-----10----------12h14-12-9---|
D---0-----------8-----------0-----------8------------------------|


[Chorus 2]
D---------------------------------------------------|
A---------------------------------------------------|
F---------------------------------------------------|
C---2-----5-----10-----2-----9------10-----2-2-2~---|
G---2-----5-----10-----2-----10-----10-----2-2-2~---|
D---0-----3-----8------0-----7------8------0-0-0~---|




[GUITAR TWO]


[Intro]
D---7^~-----------|
A---5^~-----------|
F-----------5^~---|
C-----------------|
G-----------------|
D-----------------|

D----------------------------------10-----|
A-----------------------------------------|
F---12p0-11h12p0-7h9p7---0-7p0-9p0----0---|
C----------------------9------------------| (x4)
G-----------------------------------------|
D-----------------------------------------|


[Verse 1]
D---12~--------------------10~---|
A---12~--------------------10~---|
F---9~---------------------7~----|
C--------------------------------|
G--------------------------------|
D--------------------------------|

D---12-12-12-12-12-12-12-12-12-12-12-12-12-12-12-12---|
A---12-12-12-12-12-12-12-12-12-12-12-12-12-12-12-12---|
F---9--9--9--9--9--9--9--9--9--9--9--9--9--9--9--9----|
C-----------------------------------------------------| (x2)
G-----------------------------------------------------|
D-----------------------------------------------------|

D---10-10-10-10-10-10-10-10-10-10-10-10-10-10-10-10---|
A---10-10-10-10-10-10-10-10-10-10-10-10-10-10-10-10---|
F---7--7--7--7--7--7--7--7--7--7--7--7--7--7--7--7----|
C-----------------------------------------------------| (x2)
G-----------------------------------------------------|
D-----------------------------------------------------|


[Pre-Chorus 1]
D----------------------------------10-----|
A-----------------------------------------|
F---12p0-11h12p0-7h9p7---0-7p0-9p0----0---|
C----------------------9------------------| (x2)
G-----------------------------------------|
D-----------------------------------------|


[Chorus 1]
D---------12^-----------12^------------|
A---7^------------7^-----------7^------|
F------5^------------5^-----5^----5^---|
C--------------------------------------| (x3)
G--------------------------------------|
D--------------------------------------|

D---------12^-----------12^------------|
A---7^------------7^-----------5^------|
F------5^------------5^-----5^----5^---|
C--------------------------------------|
G--------------------------------------|
D--------------------------------------|


[Bridge]
D----------------------------------10-----|
A-----------------------------------------|
F---12p0-11h12p0-7h9p7---0-7p0-9p0----0---|
C----------------------9------------------| (x4)
G-----------------------------------------|
D-----------------------------------------|


[Verse 2]
D---12~--------------------10~---|
A---12~--------------------10~---|
F---9~---------------------7~----|
C--------------------------------|
G--------------------------------|
D--------------------------------|

D---12-12-12-12-12-12-12-12-12-12-12-12-12-12-12-12---|
A---12-12-12-12-12-12-12-12-12-12-12-12-12-12-12-12---|
F---9--9--9--9--9--9--9--9--9--9--9--9--9--9--9--9----|
C-----------------------------------------------------| (x2)
G-----------------------------------------------------|
D-----------------------------------------------------|

D---10-10-10-10-10-10-10-10-10-10-10-10-10-10-10-10---|
A---10-10-10-10-10-10-10-10-10-10-10-10-10-10-10-10---|
F---7--7--7--7--7--7--7--7--7--7--7--7--7--7--7--7----|
C-----------------------------------------------------| (x2)
G-----------------------------------------------------|
D-----------------------------------------------------|


[Pre-Chorus 2]
D----------------------------------10-----|
A-----------------------------------------|
F---12p0-11h12p0-7h9p7---0-7p0-9p0----0---|
C----------------------9------------------| (x2)
G-----------------------------------------|
D-----------------------------------------|


[Chorus 2]
D---------12^-----------12^------------|
A---7^------------7^-----------7^------|
F------5^------------5^-----5^----5^---|
C--------------------------------------| (x3)
G--------------------------------------|
D--------------------------------------|

D---------12^-----------12^------------|
A---7^------------7^-----------5^------|
F------5^------------5^-----5^----5^---|
C--------------------------------------|
G--------------------------------------|
D--------------------------------------|


[Bridge]
D----------------------------------------------------------|
A----------------------------------------------------------|
F----------7~-------------------------7~-------------------|
C---2~-----7~-----10~----------2~-----7~-----10~-----10~---|
G---2~-----5~-----10~----------2~-----5~-----10~-----10~---|
D---0~------------8~-----------0~------------8~------8~----|

D---------12^-----------12^------------|
A---7^------------7^-----------7^------|
F------5^------------5^-----5^----5^---|
C--------------------------------------| (x3)
G--------------------------------------|
D--------------------------------------|

D---------12^-----------12^---------------|
A---7^------------7^----------------------|
F------5^------------5^-----14h16-14-11---|
C-----------------------------------------|
G-----------------------------------------|
D-----------------------------------------|


[Chorus 3]
D---------12^-----------12^------------|
A---7^------------7^-----------7^------|
F------5^------------5^-----5^----5^---|
C--------------------------------------| (x4)
G--------------------------------------|
D--------------------------------------|

D---------12^~---|
A---7^-----------|
F------5^--------|
C----------------|
G----------------|
D----------------|





Comments


Popular Saosin tabs & chords
Bury Your Head (Acoustic) 1 Chords
Ive Been Dying To Reach You Chords
Voices 2 Chords
Youre Not Alone 1 Chords
I Never Wanted To Tabs
It's Far Better To Learn Tabs
Ive Been Dying To Reach You Tabs
Seven Years Ep Tabs
Why Cant You See Tabs
Youre Not Alone Ukulele


Song lyrics



↑ Back to top | Tablatures and chords are parodies/interpretations of the original songs. You may use it for private study, scholarship, research or language learning purposes only
© 2014 AZChords.com Contact us | Privacy policy | DMCA | Add/correct tabs | Request tabs | Top 50 tabs