» » »

Overjoyed Tabs (ver.1)

Artists:  A B C D E F G H I J K L M N O P Q R S T U V W X Y Z # 

Overjoyed Tabs (ver.1)

Santos Paolo
Rating:
0/5 (0 votes)

Tabs too difficult? Try these video lessons and learn fast.
                ********************************************************************

TITLE :	OVERJOYED(acoustic)
TUNING: Eb(e flat)


INTRO:
E------------------------------------------------------------|
B------------------------------------------------------------|repeat 2x
G---3-----3----3-----3----3-----3-----3------3---------------|
D-------3----------2----------1------------2-----------------|
A---4----------3----------2-----------3----------------------|
E------------------------------------------------------------|
                                                                 
VERSE1:
Bb		Eb		Cm7		Fm7        Bb7sus Bb7	
	Over time, I've building my castle of love 
Eb			 Cm7                    F/A	G/B	 
Just for two, though you never knew you were my reason 
C         CM7       C6 			G
I've gone much too far for you now to say 
Gm/C		 F(add2)      Bb  	
That I've got to throw my castle away 

VERSE2:
Eb			   Cm7	             Fm7           Bb7sus Bb7
Over dreams, I have picked out a perfect come true 
Eb			 Cm7                    F/A	G/B	
Though you never knew it was of you I've been dreaming 
C         CM7       C6 			G
The sandman has come from too far away 
Gm/C		 F(add2)      Bb 
For you to say come back some other day 

CHORUS1:
	             AbM7
And though you don't believe that they do 
	Eb/G
They do come true
Fm7		Bb 
For did my dreams 
		Db		C
Come true when I looked at you 
		BbM7
And maybe too, if you would believe 
	F(add2)/A
You too might be 
Fm7	    Bb7sus Bb7	     (INTRO)re
Overjoyed, over loved, over me 


VERSE3:
Bb		Eb		Cm7			Fm7        Bb7sus Bb7
	Over hearts, I have painfully turned every stone 
Eb			 Cm7                    F/A	G/B	
Just to find, I had found what I've searched to discover 
C        CM7       C6 			G
I've come much too far for me now to find 
Gm/C		 F(add2)      Bb 
The love that I've sought can never be mine 


CHORUS2:
	            AbM7
And though you don't believe that they do 
	Eb/G
They do come true 
Fm7		Bb
For did my dreams 
		Db		C
Come true when I looked at you 
	  BbM7
And maybe too, if you would believe 
	  F(add2)/A
You too might be 
Fm7         Bb7sus Bb7		Gm7/C    C
Overjoyed, over loved, over me 


Chorus3:
		BbM7
And though the odds say improbable 
	F(add2)/A
What do they know 
Gm7	      C
For in romance 
	Eb		   D
All true love needs is a chance
	CM7 			C6
And maybe with a chance you will find 
G(add2)/B
You too like I
Gm		C7	F     	GbM7     FM7 EM7
Overjoyed, over loved, over you, 
Bb	Eb 
over you..... wohoooooo waaaaaaaaa :D yebaaaaaaa



chord chart:
	
      F/A    G/B     F(add2)   Eb/G  F(add2)/A   Gm7/C	 G(add2)/B	
E-----1-------3---------3--------3-------3---------3--------3-------|
B-----1-------0---------1--------4-------1---------3--------3-------|
G-----2-------0---------1--------3-------2---------3--------2-------|
D-----3-------0---------3--------5-------3---------3--------0-------|
A-----x-------2---------3----------------0---------3--------2-------|
E-----x-----------------1----------------x---------x--------x-------|

to all my hommies!! specially to sherwin(nanliligaw ka na di ka pa... Tu...lily's peanut butter) Holla me back!!
            
Tabs too difficult? Try these video lessons and learn fast.




comments powered by Disqus
↑ Back to top | Tablatures and chords are parodies/interpretations of the original songs. You may use it for private study, scholarship, research or language learning purposes only