» » »

Ill Be Tabs (ver.1)

Artists:  A B C D E F G H I J K L M N O P Q R S T U V W X Y Z # 

Ill Be Tabs (ver.1)

Santos Paolo
Rating:
0/5 (0 votes)

Tabs too difficult? Try these video lessons and learn fast.
                Ito yung correction ko dun sa una kong tab medyo kasi magulo pero madami 
naman ang nakakuha..pasensiya dun sa mga naguluhan..ito inayos ko na 
sana ok na sa inyo.kahit hindi nyo na masyado pakinggan yung kanta makukuha
nyo to..Thanks!!Merry Christmas! Comments?
  
Intro:
-----
                                 
e|--------0-!--------0------!-------------0-!---------0------0-------------|
B|-----0----!-----0------0--!---------0-----!-----0------0-------0---------|
G|---8------!---8------8----!-------6-------!---6------6-------6-----------|
D|-------9--!------9--------!-----------7---!-------7------7---------------|
A|----------!---------------!---------------!------------------------------|
E|-7--------!-7-------------!-7--5----------!-5----------------------------|



Dito medyo mabilis ang plucking..

       e|-------0-----!      -------0-------!      !-------!
       B|---0-----0---!      ---0-----0-----!      !-----0-! 
4x ->  G|-----8-----8-!3x -> -----6-----6---! then !---6---!
       D|-------------!      ---------------!      !-------! 
       A|-------------!      ---------------!      !-------!
       E|-7-----------!      -5-------------!      !-5-----!  

Part 1: Verse                                            

The strands in your eyes that color them wonderful
  
e!-------0--------------0-----!---------0--------------0-----|
B!---0-----0--------0-----0---!-----0-----0--------0-----0---|
G!-----8-----8--------8-----8-!-------9-----9--------9-----9-|
D!----------------------------!------------------------------|
A!----------------------------!---7-------------7------------|
E!-7--------------7-----------!------------------------------!

Stop me and steal my breath
            
e|--------0-------------0-----!---------0--------------0-----!
B|---0------0-------0-----0---!-----0-----0--------0-----0---!
G|-----8------8-------8-----8-!-------3-----3--------1-----1-!
D|----------------------------!------------------------------!
A|----------------------------!------------------------------!
E|-7--------------7-----------!---2-------------0------------!

Emeralds from mountains thrust towards the sky

e!-------0--------------0-----!---------0--------------0-----|
B!---0-----0--------0-----0---!-----0-----0--------0-----0---|
G!-----8-----8--------8-----8-!-------9-----9--------9-----9-|
D!----------------------------!------------------------------|
A!----------------------------!---7-------------7------------|
E!-7--------------7-----------!------------------------------!

Never revealing their depth

e|--------0-------------0-----!---------0--------------0-----!
B|---0------0-------0-----0---!-----0-----0--------0-----0---!
G|-----8------8-------8-----8-!-------3-----3--------1-----1-!
D|----------------------------!------------------------------!
A|----------------------------!------------------------------!
E|-7--------------7-----------!---2-------------0------------!

Part 2: Refrain
      
Tell me that we belong together        
e|-------0--------------0---------------0--------------0-----!
B|---0-----0--------0-----0---------0-----0--------0-----0---!
G|-----8-----8--------3-----3---------1-----1--------3-----3-!
D|-----------------------------------------------------------!
A|-----------------------------------------------------------!
E|-7--------------2---------------0-------------2------------!

Dress it up with the trappings of love

e|-------0--------------0---------------0--------------0-----!
B|---0-----0--------0-----0---------0-----0--------0-----0---!
G|-----8-----8--------3-----3---------1-----1--------3-----3-!
D|-----------------------------------------------------------!
A|-----------------------------------------------------------!
E|-7--------------2---------------0-------------2------------!

I'll be captivated, I'll hang from your lips              

e|-------0--------------0---------------0--------------0-----!
B|---0-----0--------0-----0---------0-----0--------0-----0---!
G|-----8-----8--------3-----3---------1-----1--------3-----3-!
D|-----------------------------------------------------------!
A|-----------------------------------------------------------!
E|-7--------------2---------------0-------------2------------!

Instead of the gallows of heartache that hang from above

e -------0--------------0---------------0-------------0------!
B ---0-----0--------0-----0---------0-----0-------0-----0----!
G -----6-----6--------6-----6---------3-----3-------3-----3--!
D -----------------------------------------------------------!
A -----------------------------------------------------------!
E -5--------------5---------------2-------------2------------!

  --------0-------------0---------------0--------------0-----!
  ----0-----0-------0-----0---------0-----0--------0-----0---!            
  ------1-----1-------1-----1---------3-----3--------3-----3-!
  -----------------------------------------------------------!
  -----------------------------------------------------------!
  --0-------------0---------------2--------------2-----------!

Chorus:

And I'll be your crying shoulder

e!-------0--------------0-----!---------0--------------0-----|
B!---0-----0--------0-----0---!-----0-----0--------0-----0---|
G!-----8-----8--------8-----8-!-------9-----9--------9-----9-|
D!----------------------------!------------------------------|
A!----------------------------!---7-------------7------------|
E!-7--------------7-----------!------------------------------!

I'll be loves suicide
            
e|--------0-------------0-----!---------0--------------0-----!
B|---0------0-------0-----0---!-----0-----0--------0-----0---!
G|-----8------8-------8-----8-!-------3-----3--------1-----1-!
D|----------------------------!------------------------------!
A|----------------------------!------------------------------!
E|-7--------------7-----------!---2-------------0------------!

I'll be better when I'm older

e!-------0--------------0-----!---------0--------------0-----|
B!---0-----0--------0-----0---!-----0-----0--------0-----0---|
G!-----8-----8--------8-----8-!-------9-----9--------9-----9-|
D!----------------------------!------------------------------|
A!----------------------------!---7-------------7------------|
E!-7--------------7-----------!------------------------------!

I'll be the greatest fan of your life...

e|--------0-------------0-----!---------0--------------0-----!
B|---0------0-------0-----0---!-----0-----0--------0-----0---!
G|-----8------8-------8-----8-!-------3-----3--------1-----1-!
D|----------------------------!------------------------------!
A|----------------------------!------------------------------!
E|-7--------------7-----------!---2-------------0------------!

Bago mag verse 2:

e!-------0--------------0-----!---------0--------------0-----|
B!---0-----0--------0-----0---!-----0-----0--------0-----0---|
G!-----8-----8--------8-----8-!-------9-----9--------9-----9-|
D!----------------------------!------------------------------|
A!----------------------------!---7-------------7------------|
E!-7--------------7-----------!------------------------------!

e|--------0-------------0-----!---------0--------------0-----!
B|---0------0-------0-----0---!-----0-----0--------0-----0---!
G|-----8------8-------8-----8-!-------3-----3--------1-----1-!
D|----------------------------!------------------------------!
A|----------------------------!------------------------------!
E|-7--------------7-----------!---2-------------0------------!

Verse 2:
        Rain falls angry on the tin roof
        As we lie awake in my bed
        You're my survival, you're my living proof
        My love is alive not dead
Refrain:        
        Tell me that we belong together
        Dress it up with the trappings of love
        I'll be captivated, I'll hang from your lips
        Instead of the gallows of heartache, that hang from above
Chorus:
        And I'll be your crying shoulder
        I'll be loves suicide
        I'll be better when I'm older
        I'll be the greatest fan of your life...

Bridge:
        
And I've dropped out, burned up, fought my way back from the dead

e -------0--------------0---------------0-------------0------!
B ---0-----0--------0-----0---------0-----0-------0-----0----!
G -----6-----6--------6-----6---------3-----3-------3-----3--!
D -----------------------------------------------------------!
A -----------------------------------------------------------!
E -5--------------5---------------2-------------2------------!

  --------0-------------0---------------0--------------0-----!
  ----0-----0-------0-----0---------0-----0--------0-----0---!            
  ------1-----1-------1-----1---------3-----3--------3-----3-!
  -----------------------------------------------------------!
  -----------------------------------------------------------!
  --0-------------0---------------2--------------2-----------!

Tuned in, turned on, remembered the thing that you said...

e -------0--------------0---------------0-------------0------!
B ---0-----0--------0-----0---------0-----0-------0-----0----!
G -----6-----6--------6-----6---------3-----3-------3-----3--!
D -----------------------------------------------------------!
A -----------------------------------------------------------!
E -5--------------5---------------2-------------2------------!

  --------0-------------0---------------0--------------0-!
  ----0-----0-------0-----0---------0-----0----------0---!            
  ------1-----1-------1-----1---------3-----3------3-----!
  -------------------------------------------------------!
  -------------------------------------------------------!
  --0-------------0---------------2--------------2-------!

isa pang chorus..then..

e!-------0--------------0-----!---------0--------------0-----|
B!---0-----0--------0-----0---!-----0-----0--------0-----0---|
G!-----8-----8--------8-----8-!-------9-----9--------9-----9-|
D!----------------------------!------------------------------|
A!----------------------------!---7-------------7------------|
E!-7--------------7-----------!------------------------------!
                  
                               the greatest fan of your life..
e|--------0-------------0-----!---------0--------------0-----!
B|---0------0-------0-----0---!-----0-----0--------0-----0---!
G|-----8------8-------8-----8-!-------3-----3--------1-----1-!
D|----------------------------!------------------------------!
A|----------------------------!------------------------------!
E|-7--------------7-----------!---2-------------0------------!

e!-------0--------------0-----!---------0--------------0-----|
B!---0-----0--------0-----0---!-----0-----0--------0-----0---|
G!-----8-----8--------8-----8-!-------9-----9--------9-----9-|
D!----------------------------!------------------------------|
A!----------------------------!---7-------------7------------|
E!-7--------------7-----------!------------------------------!

e|--------0-------------0-----!---------0---------------0----!
B|---0------0-------0-----0---!-----0-----0----------0----0--!
G|-----8------8-------8-----8-!-------3-----3------1--------1!
D|----------------------------!------------------------------!
A|----------------------------!------------------------------!
E|-7--------------7-----------!---2-------------0------------!

e!-0-!
B!-0-!
G!-8-!
D!-9-!
A!-x-!
E!-7-!
            
Tabs too difficult? Try these video lessons and learn fast.


comments powered by Disqus
↑ Back to top | Tablatures and chords are parodies/interpretations of the original songs. You may use it for private study, scholarship, research or language learning purposes only