» » »

Fool Tabs (ver.1)

Artists:  A B C D E F G H I J K L M N O P Q R S T U V W X Y Z # 

Fool Tabs (ver.1)

Santos Paolo
Rating:
0/5 (0 votes)

Hard to play? Try these video lessons and learn fast.
                Paolo Santos


Standard Tuning: (EADGBE)

Intro:
Making a fool of myself right here...

E--2--4--2--5-
B--2--5--3--5-
G--2--4--2--4-
D--0--6--4--2-
A-----4--2----
E-------------

E-------4--2-2-2------------
B-2-2---5--2h3p2--0---------
G-2h4---4--2-2-2--2---------
D-2-2---6--4-4-4--0---------
A-0-0---4--2-2-2--0---------
E-----------------3---------

Verse:
Been away..

E-------4--2-2-2----------------
B-2-2---5--2h3p2--0-------------
G-2h4---4--2-2-2--2-------------
D-2-2---6--4-4-4--0-------------
A-0-0---4--2-2-2--0-------------
E-----------------3-------------

Pre-chorus:
I know that i don't deserve you...

E-2--4--5--4----------------
B-3--5--7--5----------------
G-2--4--6--4----------------
D-4--6--7--6----------------
A-2--4--5--4----------------
E---------------------------

But if this is what it takes..

E-2-----
B-3--4*-
G-2--5*-
D-4--2*-
A-2-----
E-------

Chorus:
  I am   making a fool..

E-2/4----5-4-2-----------
B-3/5----7-5-3-5---------
G-2/4----6-4-2-4---------  play 4x
D-4/6----7-6-4-2---------
A-2/4----5-4-2-----------
E------------------------
            
Hard to play? Try these video lessons and learn fast. | Correct




comments powered by Disqus
↑ Back to top | Tablatures and chords are parodies/interpretations of the original songs. You may use it for private study, scholarship, research or language learning purposes only