» » »

Because Of You Tabs (ver.1)

Artists:  A B C D E F G H I J K L M N O P Q R S T U V W X Y Z # 

Because Of You Tabs (ver.1)

Santos Paolo
Rating:
0/5 (0 votes)

Tabs too difficult? Try these video lessons and learn fast.
                I don't know if there are any other versions of this song (live, concert, radio stations, gigs etc.)
but this tab is from the CD version.

Its not that precise but its pretty much close.

Any comments, compliments, and violent reactions are welcome. Just dump it all at

You can listen to the CD for guidance ;)

INTRO:

  Dmaj7-3    D6-3         Dmaj7-3      D6-3

|----------------------------------------------------||
|-----2-2------0-----0------2-----2------0----(0)----||
|---2---2------2---2-2------2---2-2------2-----------||
|-0-----0----0-0-0---0----0---0---0----0-0----(0)----||
|----------------------------------------------------||
|----------------------------------------------------||



VERSE I:

  Dmaj7sus2      D7sus2

|-------0---------------------0--------|
|-----2-2-------------------1-1--------|
|---2---2----(2)----------2---2--------|
|-0-----0----(0)--------0-----0----(0)-|
|--------------------------------------|
|--------------------------------------|
         if ever you wondered

  Gmaj7-3	 A7sus   A7	 Dmaj7sus2	D7sus2

|----------------------2--------------------------------0--------------0--------|
|--------------------3------------3-----3-2-----2-----2-2------------1-1--------|
|------------------0------------------0-2-----0-----2---2----(2)---2---2--------|
|-----------------------------------2-------2-----0-----0----(0)-0-----0----(0)-|
|---------------------------------0-----0-0-------------------------------------|
|----------------3-----3----(3)-------------------------------------------------|
 if you touched my soul, yes you do                   since...   the same

					PRE CHORUS:
  Gmaj7-3	 A7sus   A7		 Bm7            F#m7

|-------2------------------------	|------2----2----------------|
|-----3----------3-----3-2-----2-	|3-----3----3---------2------|
|---0----------------0-2-----0---	|----2-2----2---2---2--------|
|------------------2-------2-----	|--4---4----4-----2----------|
|----------------0-----0-0-----0-	|2-----2--2-2-2--------------|
|-3-----3----(3)-----------------	|---------------2----------2-|
  life...   do... ooh ooh ohh              just...      say...


  Emadd9       A7sus   A7  Bm7		   F#m           Em

|-------2--------------------------------------------------------------|
|---------0----3------2----------3-----3---------2----2--------0-------|
|-----0------------0-----------2-----------------2----2----------------|
|-2-2------------2-----------4-------4---------4-------------2---------|
|-2------------0------0----2-------2-----2---4-------------2-----------|
|-0----------------------------------------2--------2----0----------0--|
    with...    can't...      never...

  
			CHORUS:
  A7sus   A7		  Dmaj7sus2	D7sus2		 G		 A7sus

|-----------------	|------0--------0-----0------0----------------------------|
|-3-----3-2-----2-	|----2-2--------1---1-1------1-------------3-----3-----3--|
|-----0-------0---	|--2---2----(2)-2-2---2------2---------0-------0-----0----|
|---2-------2-----	|0-----0----(0)-0-----0--(0)---------0---0---0-----2------|
|-0-------0-----0-	|----------------------------------2-------------0--------|
|-----------------	|------------------------------0-3------------------------|
          because of you...      my life...              thank you...

  A7      Bm7            F#m7           Em           A7sus   A7

|-------------------------------------------------------------------|
|-2-----2-------3--------------2----2---------0------3-----3---2----|
|-----0-------2-2-------------------2--------------------0----------|
|---2-------4---4------------2----2-2-------2----------2------------|
|-0-----0-2-----2----(2)---4--------4-----2----------0---------0----|
|------------------------2----------2-2-0----------0----------------|
  because...             feel...      i'll...          it's because...


INTERLUDE:
  Dmaj7sus2      D6-3	       Dmaj7sus2      D6-3	       
  
|-------0----------------------0-----0-----------------------|
|-----2-2------2-0-----0----0--2---2-2------2-0-----0--------|
|---2---2----2---2---2-2----2--2-2---2----2---2---2-2--------|
|-0-----0--0-----0-0---0--0----0-----0--0-----0-0---0----(0)-|
|------------------------------------------------------------|
|------------------------------------------------------------|
..you


VERSE II:
  Dmaj7sus2       D7sus2         G               A7sus   A7

|-------0-------0-------0----0--------------------------------|
|-----2-----2---------1--------------------0---3-3-----3-2----|
|---2-----2---2-----2------------------0-------------0--------|
|-0---------------0--------0---------0---0---0-----2----------|
|----------------------------------2-------------0-------0----|
|------------------------------0-3----------------------------|
        sometimes...         and...
 
  Dmaj7sus2	  D7sus2         G

|-------0-------0-------0----0-------------------|
|-----2-----2---------1--------------------0---3-|
|---2-----2---2-----2------------------0---------|
|-0---------------0--------0---------0---0---0---|
|----------------------------------2-------------|
|------------------------------0-3---------------|
    you...                 you make...

  A7sus   A7
			
|-----------------	
|-3-----3-2---2---	
|-----0-------0---	
|---2---------2---	
|-0-------0-0---0-	
|-----------------	
..true


PRE CHORUS:
	  Bm7             F#m7

	|--------------------------------|
	|-------3-----3---------2----2---|
	|-----2-----2-----------2----2---|
	|---4-----4-----------2-2----2---|
	|-2-------------2---4---4----4---|
	|-----------------2-----2--2-2-2-|
            it's..

  Em             A7sus A7        Bm7            F3m7           Emadd9
|--------------------------------------------------------------------2--|
|-------0----0---3-----2-----2---------3----3---------2----(2)----------|
|-0---0--------------0-----0---------2--------------2--------------0----|
|-2-2------2---2---2-----2---------4------4-----2-2--------------2------|
|-2--------------0-----0-------0-2------------2-4-----------------------|
|-0---------------------------------------------2--------------0--------|
    you...       me   eternally    I love...              for you

	  			CHORUS:
	  A7sus4add13            Dmaj7sus2	  D7sus2
			
|---------------2------		|--------0----(0)-0----(0)--|
|---0-----3-----3----3-		|------2-2----(2)-1----(1)--|
|-------0-----0------0-		|----2---2----(2)-2----(2)--|
|-2---2-----2--------2-		|--0-----0----(0)-0----(0)--|
|---------0--------0---		|0--------------------------|
|----------------------		|---------------------------|
                 because...                 my life...

      G               A7sus   A7      Bm7            F#m7           Em           A7sus   A7
            
|---------------------------------------------------------------------------------------------|
|-1-------------0---3-3-----3-2-----2-------3--------------2----2---------0------3-----3-2----|
|-2---------0-------------0-------0-------2-2-------------------2--------------------0--------|
|-0-------0---0---0-----2-------2-------4---4------------2----2-2-------2----------2----------|
|-------2-------------0-------0-------2-----2----(2)---4--------4-----2----------0-------0----|
|---0-3----------------------------------------------2----------2-2-0----------0--------------|
      thank...        joy...       ...you               ...shame                ...it's   


BRIDGE:
	 Bm7            Bm7

|----------------------------------------|
|-(2)----------3----(3)-------3--(3)-(3)-|
|------------2--------------2------------|
|----------4--------------4--------------|
|-(0)----2--------------2----------------|
|----------------------------------------|
      ...you         ...magic in

  Bm7      F#m7            Fm7-5add11 Emadd9         Em7

|--------------------------------------------2----(2)----------|
|-3-(3)--------------------------------------0----(0)-------3--|
|-2-(2)-----2----(2)--2---2-1----1-----------0----(0)----------|
|-4-(4)-----2----(2)--2-2---1----1---------2-2----(2)-----2----|
|-2-(2)-----4----(4)--4-----1----1-------2---2----(2)---2------|
|-----------2----(2)--2-----1--1-1-1---0-----0----(0)-0--------|
  your eyes      true love...       deny            hold me

          A7sus    A7        F#7sus   F#7      Bm7

|------------------------------------------------------------------------------|
|-------3-3--------2---2-2---------------------3-----3-------3-------3--3------|
|---0---------0--------0-0---4---4----3----(3)-----2-----2---------2----2------|
|-2---2-----2--------2-2-2------------2----(2)---4-----4---4-----4------4------|
|---------0--------0---0-0-0---4------4----(4)-2---------------2--------2------|
|----------------------------2--------2----(2)----------------------------0-0--|
          i just...                                  i want...

  F#m7                             Em9

|----------------------------------------2----(2)-------2----(2)-|
|-------2-------2------------------------3----(3)-------3----(3)-|
|-----2-----2------------2---------0--------------0--------------|
|-2-2-----2---2---2--(2)---2-2---2-2---2----------2---2----------|
|-4---------------4--(4)-----4---4-2-2------------2-2------------|
|-2---------------2--(2)-----2-2-2-0--------------0--------------|
 never...                          much...        world...

					CHORUS: 
  A7sus           A7			 
				         Dmaj7sus2      D7sus2           G
|----------------------------		-------0----(0)-------0--(0)--------------|
|-3-----3-----3---2----(2)---		-----2--------------1--------1------------|
|-----0-----0----------------		---2--------------2----------2---------0--|
|---2-----2-----2------------		-0--------------0------------0-------0----|
|-0---------------0----(0)---		-----------------------------------2------|
|----------------------------		-------------------------------0-3--------|
                        because of    you        my life has changed   thank...

          A7sus   A7        Bm7                     F#m7                   Em             A7sus   A7
|-------------------------------------------------------------------------------------------------------|
|---3---0-3-----3-2----(2)-------3-(x)-----3----(3)-------2----(2)-(2)-(2)-------0--------3------3-2----|
|-------------0-------------------------------------2---2----------------------0------0-------0---------|
|-0---0-----2-----------------------------------------2--------------------2-2------2---2---2-----------|
|---------0-------0--------------2-(x)-----2----(2)------------------------2--------2-----0--------0----|
|---------------------------------------------------2----------------------0--------0-------------------|
                  because of you...          i feel no shame              I'll...           it's because of...

ENDING:
  Bm7   Dmaj7-3     D7sus2          G               A7sus   A7   Bm7

|------------------------0--(0)-----------------------------------------------|
|-3-------------2---1-----------1-------------0---3-3-----3-2----------3------|
|-----2-------2-2-----2---------2---0-----0-------------0------------2---2----|
|---4---0-(0)---0-0-0-----------0---0---0---0---0-----2------------4----------|
|-2---------------------------------2-2-------------0-------0----2------------|
|---------------------------------0-3-----------------------------------------|
        you..                     thank...                  ...you...

  F#m7           Em             A7sus  A7             Bbm7
|-----------------------------------------------------------------------------1----------|
|-------2----(2)-------0----(0)-3------2----(2)--(2)--------3-----3---3-----3---3--------|
|-----2--------------0--------------0--0----(0)--(0)------2-----2---2-----2-------2------|
|-2-2------------2-2--------------2----2----(2)--(2)----3-----3---------3-----------3----|
|-4--------------2--------------0------0----(0)--(0)--1---------------1------------------|
|-2--------------0-----------------------------------------------------------------------|
                 I'll...          

  Dmaj7sus2      D?
|-------0--------5----|
|-----2----------3----|
|---2------------2----|
|-0--------------0----|
|---------------------|
|---------------------|
            
Tabs too difficult? Try these video lessons and learn fast.




comments powered by Disqus
↑ Back to top | Tablatures and chords are parodies/interpretations of the original songs. You may use it for private study, scholarship, research or language learning purposes only