>
 >
Black Magic Woman Live

Black Magic Woman Live Guitar Tabs

Santana Carlos - Black Magic Woman Live chords, tabs, tablatures, lyrics

Guitar lessons | Add/correct | Request | Top 50 tabs Artists:  A B C D E F G H I J K L M N O P Q R S T U V W X Y Z 0-9

Black Magic Woman Live Guitar Tabs – Santana Carlos

CD, Sheet music, Poster

Do you like Black Magic Woman Live? Share with your friends now
Tabs
Song Title:Black Magic Woman/Gipsy Queen--Live
Artist/Band:Santana
As performed live on Superbowl XXXVII Pre-Game Show


Symbols:

h=hammer-on
p=pull-off
/=slide-up
\=slide-down
~=left hand vibrato

CHORDS:
--For Black magic Woman:
  Dm:10-12-12-10-10-10 and 5-5-7-7-6-7 
  Am: 5-7-7-5-5-5
  Gm: 3-5-5-3-3-3

--For Gipsy Queen:
  DMaj: xx0232
  CMaj: 332020
  Amaj: 002220
  Gmaj: 320003

INTRO:
e|--------------------------|
B|---------8----------------|
G|-9/10~~~---9--10p9--7~~~--|
D|--------------------------|
A|--------------------------|
E|--------------------------|


e|--------------------------|-------------------|
B|-6h8p6---6----10-11p10-8--|--9-10p9-7-5-7~~~--|
G|-------7------------------|-------------------|
D|--------------------------|-------------------|
A|--------------------------|-------------------|
E|--------------------------|-------------------|

VERSE:

 "Got a black magic woman,
e|-10-12/13p12h13p12h13p12h13p12h13p12h13p12h13p12h13p12h13p12h13--|
B|-----------------------------------------------------------------|
G|-----------------------------------------------------------------|
D|-----------------------------------------------------------------|
A|-----------------------------------------------------------------|
E|-----------------------------------------------------------------|
  
   ...got a black magic woman...
e|-------------------------------------------|
B|-------------------------------0-2-3-5--8--|
G|-------------------------------------------|
D|-------------------------------------------|
A|-------------------------------------------|
E|-------------------------------------------|

         Dm      
 I got a black magic woman
                         Gm 
 got me so blind I can't see
e|-3-------3--------3--|
B|---3-------3------3--|
G|-----3-------3----3--|
D|---------------------|
A|---------------------|
E|---------------------|
 
       Dm
 She's a black magic woman
         Am                             Dm  
 She's trying to make a devil out of me.

GIPSY QUEEN:
e|-----------------------------2--|
B|-----------------------------3--|
G|-----------------------------3--|
D|-----------------------------0--|
A|-0----0----0----0----0-------x--|
E|---0----0----0----0----0-----x--|


e|-2h3p2----2--|--2--3-3-3-2-0----2--|
B|-------3--3--|---------------3--3--|
G|----------3--|------------------2--|
D|----------0--|------------------0--|
A|----------x--|------------------x--|
E|----------x--|------------------x--|


e|-2-5-56-3/5-5~~~--|-2--3-3-3-2-0-----2--|
B|------------------|--------------3---3--|
G|------------------|------------------2--|
D|------------------|------------------0--|
A|------------------|------------------x--|
E|------------------|------------------x--|


e|-----------------------|-------------------2--|
B|-----------------------|-------------------3--|
G|---7---5---5-5---------|-------------------2--|
D|-7---7---7-----5/7~~~--|-5-5-5--4-4-2-0----0--|
A|-----------------------|-------------------x--|
E|-----------------------|-------------------x--|


e|-10-8-10-8/10p8-----|-10-8-10------|
B|----------------10--|---------8p6--|
G|--------------------|--------------|
D|--------------------|--------------|
A|--------------------|--------------|
E|--------------------|--------------|

e|-10-8-10-8/10p8-----|
B|----------------10--|
G|--------------------|
D|--------------------|
A|--------------------|
E|--------------------|

e|-0--3--2--|-0--3--2--|-0--3--2--|
B|-2--0--3--|-2--0--3--|-2--0--3--|
G|-0--0--2--|-0--0--2--|-0--0--2--|
D|-2--0--0--|-2--0--0--|-2--0--0--|
A|-3--2--x--|-3--2--x--|-3--2--x--|
E|-3--3--x--|-3--3--x--|-3--3--x--|


e|-----------------------------------------------------|
B|-----------------------------------------------------|
G|-----------------------------------------------------|
D|-0-----0----2-0-----0----2-0-----0----2-0-----0---2--|
A|---0-3---3------0-3---3------0-3---0------0-3---0----|
E|-----------------------------------------------------|


e|-0--3--5--|
B|-2--0--5--|
G|-0--0--6--|
D|-2--3--7--|
A|-3--2--7--|
E|-3--3--5--|. . . END





Comments


Popular Santana Carlos tabs & chords
Bailando Aquatic Park Tabs
Bella Tabs
Dirty Dancin (Intro) Tabs
Europa Tabs
Flor D Luna Tabs
Life Is A Lady Tabs
Nothing At All Tabs
Since Supernatural 2 Tabs
Soul Sacrifice Tabs
Why Dont You And I Tabs


Song lyrics



↑ Back to top | Tablatures and chords are parodies/interpretations of the original songs. You may use it for private study, scholarship, research or language learning purposes only
© 2014 AZChords.com Contact us | Privacy policy | DMCA | Add/correct tabs | Request tabs | Top 50 tabs