>
 >
Yalleo

Yalleo Guitar Tabs

Santana - Yalleo chords, tabs, tablatures, lyrics

Guitar lessons | Add/correct | Request | Top 50 tabs Artists:  A B C D E F G H I J K L M N O P Q R S T U V W X Y Z 0-9

Yalleo Guitar Tabs – Santana

CD, Sheet music, Poster

Do you like Yalleo? Share with your friends now
Tabs
(Da Le) Yalleo by Santana


h=hammer-on 
p=pull-off 
/=slide up or indicates rapid picking 
\=slide down 
b=bend 1 semitone 
^=bend 2 semitones 
^^=bend 4 semitones (used once) 
br, ^r=bend &release 
Jam key= E minor 

There's a few seconds missing from the introduction because my tape got  
dubbed wrong, but just use the notes shown to figure it out. its just a  
bit missing. 


Intro 
|-----------------------------10----------------10-------10-12p10h12-----| 
|-----------9h10--------10h12----10-------10h12----10-12-----------------| 
|------------------------------------------------------------------------| 
|------------------------------------------------------------------------| 
|------------------------------------------------------------------------| 
|------------------------------------------------------------------------| 

...en Paris 
|-------------| 
|-------------| 
|------7h9----| 
|-7h9---------| 
|-------------| 
|-------------| 
                                                                               
..de mi 
|---------------| 
|-----8-7-------| 
|---9-----7-9---| 
|-9-------------| 
|---------------| 
|---------------| 
                                                                               
Yaleo 
|-----------------7--------------| 
|---------------8---8---10-8-----| 
|-----------7-9-------9------9---| 
|-------7-9----------------------| 
|-7--10--------------------------| 
|--------------------------------| 
                                                                               
...el isc 
|---------------| 
|-10^-10-8------| 
|----------7-7--| 
|---------------| 
|---------------| 
|---------------| 
                                                                               
...partiendo pan 
|--------------------------| 
|---------8-10^-10^--8h10--| 
|-----7-9------------------| 
|-7h9----------------------| 
|--------------------------| 
|--------------------------| 
                                                                               
...dame ya 
|-------10------| 
|-10h12----10---| 
|---------------| 
|---------------| 
|---------------| 
|---------------| 
                                                                               
Yaleo 
|-7-10-7-10-7-10-7-10-7-10-7-10-7\-----| 
|--h--p-h--p-h--p-h--p-h--p-h--p-------| 
|--------------------------------------| 
|--------------------------------------| 
|--------------------------------------| 
|--------------------------------------| 
                                                                               
Yaleo, Yaleo 
|---------------------------------------------------------------------------- 
|-----------------------------10^-10p8--------------------------------------- 
|-12wah12wah12wah12wah12wah-----------9----12wah12wah12wah12wah12wah--------- 
|---------------------------------------------------------------------------- 
|--************************-----------------***********************---------- 
|---------------------------------------------------------------------------- 
*I stop putting this filler with the wah pedal in and just write the licks now  

--------------------------------------------15^---r-12///-15p12--------------- 
-15^----15p12----------------------------------------------------------------- 
-------------14^r12--14p12--------------------------------------14^-14p12----- 
-------------------14-----14---------------------------------------------14--- 

------------15p12------------| 
--15^//15^//-----15^//-------| 
-----------------------------| 
-----------------------------| 
-----------------------------| 
-----------------------------| 

...wa yo 
|---------------------------------------------------------------------------- 
|------------12--------------------------10^--8h10--8h10p8------------------- 
|--------------14p12--14p12-------------------------------9------------------ 
|-------------------14-----14------------------------------------------------ 
|---------------------------------------------------------------------------- 
|---------------------------------------------------------------------------- 

--12-12--12-12-----------------------------------------------------| 
--12-12--12-12------------------15^--15p12-------------------------| 
--12-12--12-12----------------------------14^r12--14p12------------| 
------------------------------------------------14-----14-----12---| 
---------------------------------------------------------12h14-----| 

|------------------------------------| 
|------------------------------------| 
|---------------------7h9p7h9p7h9p7--| 
|-----------------7h9----------------| 
|----------7---10--------------------| 
|-7---10-----------------------------| 
this is during the quiet part                                                   

Yaleo Yaleo 
|---------------------------------------------------------------------------- 
|---------------------------------------------------------------------------- 
|-12wah12wah12wah12wah12wah-----14^r12--12----------------------------------- 
|-------------------------------------14--14--------------------------------- 
|---------------------------------------------------------------------------- 
|---------------------------------------------------------------------------- 

-------------------------------------------- 
-------15^----15p12------------------------- 
-------------------14^r12--14p12------------ 
-------------------------14-----14---------- 
-------------------------------------------- 
-------------------------------------------- 

-15^^-r-12h15p12-12-12-12-12-12-12-12-12-12-15p12-12------12------------------ 
-----------------------------------------------------15^----15p12------------- 
                                                                               
...wa yo 
|-------------------------------------------------9b--9----7----------------- 
|-------------------------------------------------------10------------------- 
|----------------14^-14p12--14p12-------------------------------------------- 
|-------------------------14-----14------------------------------------------ 
|---------------------------------------------------------------------------- 
|---------------------------------------------------------------------------- 

-------12------------------------15^////-------------------------------------- 
---------14p12--14p12--------------------12-12wah----------------------------- 
--------------14-----14------------------------------------------------------- 
                                                                               
piano solo

guitar solo 
|---------------------------------------------------------------------------- 
|-12-----------------------------------------15-12h15p12--------------------- 
|----------------12-----------------------14--------------------------------- 
|-------------------14-12-14-12--------15------------------------------------ 
|---------------------------------------------------------------------------- 
|---------------------------------------------------------------------------- 

-13-12-------------------------------12----12--------13-12-------------------- 
-------12-------------------------------14-----------------12----------------- 
----------14-12h14p12--12---------14--------------------------14-12----------- 
---------------------15------------------------------------------------------- 

-------------------------------12--------15////////////14p12-15///14p12------- 
-------------12-12-13///-15///------------------------------------------------ 
-------12-14------------------------------------------------------------------ 
-14-15------------------------------------------------------------------------ 

-15p14p12-15p14p12-15p14p12--------------------------------------------------- 
------------------------------12^12^---/////12-10-12^r10-12p10--14------------ 
--------------------------------------------------------------12-------------- 

-20^-------/-15-20^20^--15-20^20^--15-20^20^--15-20^20^--15-20^20^--15-20^20^- 

-15-20^20^--15-20^-15-20^-20^-20^///----| 
----------------------------------------| 
----------------------------------------| 
----------------------------------------| 
----------------------------------------| 
----------------------------------------| 

|-22^22^22^22^------22^22^22^22^------22^22^22^22^------22^22^22^22^--------- 
|---------------------------------------------------------------------------- 
|---------------------------------------------------------------------------- 
|---------------------------------------------------------------------------- 
|---------------------------------------------------------------------------- 
|---------------------------------------------------------------------------- 

-22^22^22^-22-^22^22^-22-^22^22^-repeat--------------------------------------- 

|-24^*////////////////////////-------------| 
|------------------------------------------| 
|------------------------------------------| 
|------------------------------------------| 
|------------------------------------------| 
|-*=3semitones-----------------------------| 
                                                                               
Yaleo 
Yaleo 
Yaleo 
Yaleo 
|--------------------------------------------------------12------------------ 
|-15^---15p12---------------------------------------12h15-------------------- 
|------------14^-14p12-------------12----14p12--------------14p12------------ 
|---------------------14---x-x-x-x----14------14-----------------14---------- 
|---------------------------------------------------------------------------- 
|---------------------------------------------------------------------------- 

---------------------17^r--15-17^--15---------------------------15------------ 
-------------------------------------17-17-17-17-17-17-17-17-17--------------- 
-x-x-x-x-12------------------------------------------------------------------- 
------------14---------------------------------------------------------------- 

------12------------------------------------12-----12------------------------- 
--------15p12--------------------------12h15--12h15--15p12-------------------- 
-------------14p12--14p12-------12------------------------14p12\-------------- 
------------------14-----14-------14------------------------------------------ 

|----------------------------------------------------17-----17------20^-------- 
|-10b15------r10-r10-r10-r10-r10----------------17h19--20p17--20p17------------ 
|------------------------------------------------------------------------------ 
|------------------------------------------------------------------------------ 
|------------------------------------------------------------------------------ 
|------------------------------------------------------------------------------ 

--------------------------------------------------------22-19-22-19-22-19-22-- 
-14br-12-----------------------17///19///20///------22^---p--h--p--h--p--h---- 
---------14p12h14^-14p12------------------------------------------------------ 
------------------------14--------------------19///--------------------------- 

-22^-22^-22^-22^-22^-----------12///---12///---------------------------------- 
----------------------------15^-----15^-----------14br-12--------------------- 
----------------------------------------------------------14p12--------------- 

-12-----------------------------------------------------------------------12-- 
------15p12---------------------------------------------------------------12-- 
-----------14^r12--14p12----------------------------12///14^-14p12--12h14^---- 
-----------------14-----14----------------------------------------14---------- 
--------------------------------12-9-12-9-12-9-12-9--------------------------- 
----------------------------------p-h--p-h--p-h--p---------------------------- 

------------------------------------------22-19-22-19-22-19-22-19-22- 
-15^//////15^//////-------------------22^---p--h--p--h--p--h--p--h--- 
--------------------14///16///17///19-------------------------------- 

-19////--------------------12----12------------------------------------------- 
--------20--------15^--------15^---15p12-------------------------------------- 
----------------------------------------14p12--14p12--12h14^--/-/-/r-r-14^---- 
---------------------------------------------14-----14------------------------ 

-------------------| 
-------------------| 
-r-r-r14p12--------| 
-----------14------| 
-------------------| 
-------------------|





Comments


Popular Santana tabs & chords
America 1 Tabs
Apache/Smooth Tabs
Black Magic Woman 2 Tabs
Corazon Espinado Tabs
Europa Tabs
Jingo Tabs
Primavera Tabs
Song Of The Wind 1 Tabs
Toussaint L'Overture Tabs
Why Don You And I Tabs


Song lyrics



↑ Back to top | Tablatures and chords are parodies/interpretations of the original songs. You may use it for private study, scholarship, research or language learning purposes only
© 2014 AZChords.com Contact us | Privacy policy | DMCA | Add/correct tabs | Request tabs | Top 50 tabs