>
 >
Love Is You

Love Is You Guitar Tabs

Santana - Love Is You chords, tabs, tablatures, lyrics

Guitar lessons | Add/correct | Request | Top 50 tabs Artists:  A B C D E F G H I J K L M N O P Q R S T U V W X Y Z 0-9

Love Is You Guitar Tabs – Santana

CD, Sheet music, Poster

Do you like Love Is You? Share with your friends now
Tabs

Symbols:

h=hammer-on
p=pull-off
/=slide-up
\=slide-down
~=left hand vibrato
b=bend

e|---------------|--------------------8-10--|
B|---------------|-------8-10--8h10p8-------|
G|-7h9--7-5------|-7h5-5--------------------|
D|----------7-5--|--------------------------|
A|---------------|--------------------------|
E|---------------|--------------------------|
  0:03

e|-15h17-15----------------|
B|----------17p15--13h15---|
G|-------------------------|
D|-------------------------|
A|-------------------------|
E|-------------------------|
  0:12

e|--------------------------------|
B|---------------------8----------|
G|-----5---9--7h9-7--7---7h9p7h9--|
D|-5h7---7------------------------|
A|--------------------------------|
E|--------------------------------|
  0:18

e|---------------------------------------|
B|----------------------------8----------|
G|--------5----7h9--7h9-7---7---7h9p7h9--|
D|-5-5--7---7----------------------------|
A|---------------------------------------|
E|---------------------------------------|
  0:28

e|----------------------------------------------|
B|------8-10------------------------------------|
G|-9-10-------7h9--7---7h9--10/12-12---7-5h7p5--|
D|-----------------------------------5----------|
A|----------------------------------------------|
E|----------------------------------------------|
  0:37

e|---------------------------------------------|
B|----------------------------8h10--8h10p8~~~--|
G|-5--7--9--9/10--7---9/10--7------------------|
D|------------------5--------------------------|
A|---------------------------------------------|
E|---------------------------------------------|
  0:47

e|-----------12p10--8h10-----------------------|
B|------8-10-----------------------------------|
G|-9-10-------------------7-9--10/12-12-5h7-5--|
D|---------------------------------------------|
A|---------------------------------------------|
E|---------------------------------------------|
  0:56

e|--------------------------------|
B|--------------------------------|
G|-5--7--9--9/10--7---9/10--7--9--|
D|------------------5-------------|
A|--------------------------------|
E|--------------------------------|
  1:07

e|------------------------------|
B|------------------------------|
G|------5---5h7-----------------|
D|-5--7---7------7--5h7--5h7p5--|
A|------------------------------|
E|------------------------------|
  1:16

e|-------8h10--|-15h17-------15------------------|
B|-8h10--------|-------17-15----17--13h15p13h15--|
G|-------------|---------------------------------|
D|-------------|---------------------------------|
A|-------------|---------------------------------|
E|-------------|---------------------------------|
  1:20

e|-----------------------------------|
B|---------------------8-------------|
G|-----5---9--7h9-7--7------7h9p7h9--|
D|-5h7---7---------------------------|
A|-----------------------------------|
E|-----------------------------------|
  1:31

e|-----------------------------------|
B|------------------------8----------|
G|--------5---9--7h9-7--7----7h9~~~--|
D|-5-5--7---7------------------------|
A|-----------------------------------|
E|-----------------------------------|
  1:41

e|-----------------------------------------------|
B|------8-10-------------------------------------|
G|-9-10-------7h9--7---7--9--10/12---7--5h7p5----|
D|---------------------------------5----------7--|
A|-----------------------------------------------|
E|-----------------------------------------------|
  1:50

e|---------------------------------------|
B|---------------------------8h10--8~~~--|
G|-5--7--9--9/10--7--9/10-7--------------|
D|---------------------------------------|
A|---------------------------------------|
E|---------------------------------------|
  2:00

e|---------------------------------------------------------------|
B|------8-10----------------------9b10----------5----------------|
G|-9-10-------7h9-7--7-9-10/12-12------7-5--7-5---7-5-----5-7-5--|
D|----------------------------------------------------7-5--------|
A|---------------------------------------------------------------|
E|---------------------------------------------------------------|
  2:09

e|-------------------------|
B|-------------------------|
G|-9/10--7--9/10--7---9----|
D|----------------------5--|
A|-------------------------|
E|-------------------------|
  2:21


e|-----------------------------------|
B|-----------------------------------|
G|-4--4h5h7p5----5--7----------------|
D|-------------7------7--5h7--5h7p5--|
A|-----------------------------------|
E|-----------------------------------|
  2:29

e|-----8h10------8--10--12-12-12-12-12-12-12-10-8-10--8h10--|
B|-10---------10--------------------------------------------|
G|----------------------------------------------------------|
D|----------------------------------------------------------|
A|----------------------------------------------------------|
E|----------------------------------------------------------|
  2:39

e|-7--7-------------|
B|------8---8h10p8--|
G|--------8---------|
D|------------------|
A|------------------|
E|------------------|
  2:45

e|----------------------------------------|
B|------8-10------------------------------|
G|-9-10------7h9-7--7-9-10/12-12--7-5h7p--|
D|----------------------------------------|
A|----------------------------------------|
E|----------------------------------------|
  2:48

e|-----------------------------|
B|--------------------8h10--8--|
G|-5-7-9/10-7--9/10-7----------|
D|-----------------------------|
A|-----------------------------|
E|-----------------------------|
  2:58

e|--------------------------------------8-10-12-12--13-15--|
B|-------8------------------------10-12--------------------|
G|-9--10------------------9-10-12--------------------------|
D|----------------9-10-12----------------------------------|
A|----------10-12------------------------------------------|
E|---------------------------------------------------------|
  3:07

e|-22-22-22-22-22-22-22-22--20--------|
B|-----------------------------22-20--|
G|------------------------------------|
D|------------------------------------|
A|------------------------------------|
E|------------------------------------|
  3:14

e|------------------------|
B|------------------------|
G|-9h10--7----9h10--7--9--|
D|------------------------|
A|------------------------|
E|------------------------|
  3:19

e|------------------|
B|------------------|
G|-7/9--7--5---5h7--|
D|-----------7------|
A|------------------|
E|------------------|
  3:27

e|---------------------------|
B|---------------------------|
G|------5---7----------------|
D|-5--7---7---5/7--5/7--5h7--|
A|---------------------------|
E|---------------------------|
  3:30

e|------8h10--|
B|-8h10-------|
G|------------|
D|------------|
A|------------|
E|------------|
  3:36

e|-15-12h15-12h15p12h15p12h15p12h15p12h15p12h15p12h15p12h15p12h15h15p12h15p12h15p12h15--|
B|--------------------------------------------------------------------------------------|
G|--------------------------------------------------------------------------------------|
D|--------------------------------------------------------------------------------------|
A|--------------------------------------------------------------------------------------|
E|--------------------------------------------------------------------------------------|
  3:38

e|-15/17--15/17--17-17-17-17--|
B|----------------------------|
G|----------------------------|
D|----------------------------|
A|----------------------------|
E|----------------------------|


e|-17-15-----------17---------------------|
B|-------17--15h17----17-15--13h15p13h15--|
G|----------------------------------------|
D|----------------------------------------|
A|----------------------------------------|
E|----------------------------------------|


e|-17--20\19--20\19--20\19----------17--|
B|--------------------------20--17------|
G|--------------------------------------|
D|--------------------------------------|
A|--------------------------------------|
E|--------------------------------------|
  3:48

e|-17--20\19--20\19--22-22-22-22-22-22-22--|
B|-----------------------------------------|
G|-----------------------------------------|
D|-----------------------------------------|
A|-----------------------------------------|
E|-----------------------------------------|.  .  . END
  3:53





Comments


Popular Santana tabs & chords
Carnaval 1 Bass Tabs
Jingo 1 Bass Tabs
Open Ivatation Bass Tabs
Samba´Pa Ti Bass Tabs
Smooth Chords
Smooth 1 Chords
America 1 Tabs
Black Magic Woman 2 Tabs
Bonus Track Tabs
Primavera Tabs


Song lyrics



↑ Back to top | Tablatures and chords are parodies/interpretations of the original songs. You may use it for private study, scholarship, research or language learning purposes only
© 2014 AZChords.com Contact us | Privacy policy | DMCA | Add/correct tabs | Request tabs | Top 50 tabs