» » »

Sandwich, Walang Kadala-dala Tabs (ver.1)

Artists:  A B C D E F G H I J K L M N O P Q R S T U V W X Y Z # 

Walang Kadala-dala Tabs (ver.1)

Sandwich Tabs
Rating:
0/5 (0 votes)
Walang Kadala-dala lessons Tabs too difficult? Try these video lessons and learn fast
                Tuning:
standard

intro:
diego's part
he uses distortion + delay
e|--------------------------------------------------------------------------|
B|--------------------------------------------------------------------------|
G|--9/12-12--9/12-12--9/12-12--14-12---9/12-12--9/12-12--9/12-12--16-14-----|
D|--------------------------------------------------------------------------|
A|--------------------------------------------------------------------------|
E|--------------------------------------------------------------------------|

E-mong's part
he uses wah and expression pedal with distortion and a little delay effect
e|---15~~--14b~~-14--15~~--14~~----------------------------------------------|
B|---------------------------------------------------------------------------|
G|---------------------------------------------------------------------------|
D|---------------------------------------------------------------------------|
A|---------------------------------------------------------------------------|
E|---------------------------------------------------------------------------|

verse:
diego's part
distortion + delay
e|---------------------------------------------------------------------------|
B|---------------------------------------------------------------------------|
G|--12~~--14~~~--16~~--/19---------------------------------------------------|
D|---------------------------------------------------------------------------|
A|---------------------------------------------------------------------------|
E|---------------------------------------------------------------------------|

mong's part
palm mute all this notes
e|-------------------------------------------------------------------------|
B|-------------------------------------------------------------------------|
G|-----12----12----12----12-----11----11----11----11-----------------------|
D|--12----12----12----12-----12----12----12----12--------------------------|
A|-------------------------------------------------------------------------|
E|-------------------------------------------------------------------------|
    .................................................

pre chorus
use delay and chorus
diego's part
i still figuring out mong's part here
you will do this 4 times i think
e|---------------------------------------------------------------------------|
B|-------12--13--12----------------------------------------------------------|
G|---14----------------------------------------------------------------------|
D|---------------------------------------------------------------------------|
A|---------------------------------------------------------------------------|
E|---------------------------------------------------------------------------|

chorus
do this several times
figure out the strumming pattern i might be wrong
e|---------------------------------------------------------------------------|
B|---------------------------------------------------------------------------|
G|--------------10-----9-----7----5-----4/5/4--------------------------------|
D|--7-----9--------x3-----x3---x3---x3---------------------------------------|
A|--7-x7--9-x7--8------7-----5----3-----2/32---------------------------------|
E|--5-----7------------------------------------------------------------------|

after this do intro
then verse
then pre chorus and chorus
bridge part coming up soon..
LUVU KAT


| /  slide up
|   slide down
| h  hammer-on
| p  pull-off
| ~  vibrato
| +  harmonic
| x  Mute note
            
Submit corrections

comments powered by Disqus
↑ Back to top | Sandwich Tabs for Walang Kadala-dala. Lyrics for acoustic guitar and electric guitar. Tablatures and chords are parodies/interpretations of the original songs. You may use it for private study, scholarship, research or language learning purposes only