» » »

Sandwich, Sugod Tabs (ver.2)

Artists:  A B C D E F G H I J K L M N O P Q R S T U V W X Y Z # 

Sugod Tabs (ver.2)

Sandwich Tabs
 Rating:
3.2/5 (25 votes)
Sugod lessons Tabs too difficult? Try these video lessons and learn fast
1
                Sugod
SANDWICH
5 On The Floor

Gtr 1:Diego Castillo
Gtr 2:Mong Alcaraz

Intro:
Gtr 1:
E|-------------------|-------------------|
B|-33--------3-3-----|-33--------3-3-----|
G|----22-44-----22-44|----22-44-----22-44|
D|-------------------|-------------------|
A|-------------------|-------------------|
E|-------------------|-------------------|
Gtr 2:                                        
E|---------------------22--------2-2-----|
B|------------------------22-11-----22-44|
G|---------------------------------------|
D|---------------------------------------|
A|---------------------------------------|
E|---------------------------------------|


Chorus:
E|---------------------------------------|
B|----3-5/7-5-3-5----232323232-----------|
G|-2-4------------2-4---------4----------|
D|---------------------------------------| 2x
A|---------------------------------------|
E|---------------------------------------|

Verse:
Gtr1:(palm muted)
E|-------------|
B|-------------|
G|-------------|
D|-------------|
A|-55--00-33-11|
E|---22--------|

Gtr 2:
E|-17--------|
B|---15-18---|
G|--------15-|
D|-----------|
A|-----------|
E|-----------|

Bridge:(palm muted)
E|---------------------------------|
B|---------------------------------|
G|---------------------------------|
D|---------------------------------|
A|-55555555----------------5555555-|
E|---------2222222233333333--------|

repeat Intro
repeat chorus

Solo/interlude :same as chorus

repeat verse
repeat bridge
repeat intro
repeat chorus 2x

Outro:
Gtr 1
E|-----------------|-------------------|
B|-33-----3-3------|-33-----3-3--------|
G|---22-44---22-44-|---22-44---22-44--4|
D|-----------------|-------------------|
A|-----------------|-------------------|
E|-----------------|-------------------|

Gtr 2
                  E|-22-----2-2--------|
                  B|---22-33---22-33--3|
                  G|-------------------|
                  D|-------------------|
                  A|-------------------|
                  E|-------------------|
 
            
Submit corrections

comments powered by Disqus
↑ Back to top | Sandwich Tabs for Sugod. Lyrics for acoustic guitar and electric guitar. 1 Tablatures and chords are parodies/interpretations of the original songs. You may use it for private study, scholarship, research or language learning purposes only