» » »

Humanda Ka Tabs (ver.3)

Artists:  A B C D E F G H I J K L M N O P Q R S T U V W X Y Z # 

Humanda Ka Tabs (ver.3)

Sandwich
Rating:
0/5 (0 votes)

Hard to play? Try these video lessons and learn fast.
                
para sa mga sandwich and rounin's fans... just listen to the song for the strumming 
i also made a guitar tab version for the flute or keyboard sound (guitar3). hope you people 
thankz...
(juzt msg me if u want me to tab a new rock song that you like...\m/\m/)


GUITAR TUNING : STANDARD


guitar3 - flute sound
guitar2 - acoustic
guitar1 - electric guitar


InTrO: (guitar3 then pasok guitar2 then lastly guitar1)
guitar3:
e|------12-10-12-13-12-10-12-------12-10-12-13-12-10-12---------|
B|---12----------------------10-12------------------------------|
G|--------------------------------------------------------------|
D|--------------------------------------------------------------|
A|--------------------------------------------------------------|
E|--------------------------------------------------------------|
                             ^                           ^
                             :repeat for the entire intro:

guitar2:
e|--------------------------------------------------------------|
B|--------------------------------------------------------------|
G|--------------------------------------------------------------|
D|---10-10-10-10-9---9-9-9-9---9-9-9-9--------------------------|
A|---8--8--8--8--7---7-7-7-7---7-7-7-7--------------------------|
E|---8--8--8--8--7---7-7-7-7---7-7-7-7--------------------------|

guitar1:
e|--------------------------------------------------------------|
B|--------------------------------------------------------------|
G|--------------------------------------------------------------|
D|---3-3-3-3-2---2-2-2-2---2-2-2-2------------------------------|
A|---3-3-3-3-2---2-2-2-2---2-2-2-2------------------------------|
E|---1-1-1-1-0---0-0-0-0---0-0-0-0------------------------------|


VeRsE:
guitar2:
e|--------------------------------------------------------------|
B|--------------------------------------------------------------|
G|--------------------------------------------------------------|
D|---10-10-10-10-9---9-9-9-9---9-9-9-9--------------------------|
A|---8--8--8--8--7---7-7-7-7---7-7-7-7--------------------------|
E|---8--8--8--8--7---7-7-7-7---7-7-7-7--------------------------|

guitar1:
e|--------------------------------------------------------------|
B|--------------------------------------------------------------|
G|--------------------------------------------------------------|
D|---3-3-3-3-2---2-2-2-2---2-2-2-2------------------------------|
A|---3-3-3-3-2---2-2-2-2---2-2-2-2------------------------------|
E|---1-1-1-1-0---0-0-0-0---0-0-0-0------------------------------|


cHoRuS: (do the chorus 2x)
guitar2 (with effect): (not exact number of notes to be strummed,
listen to the song for the exact number & timing...)
e|---------------------------------------------------------------|
B|---------------------------------------------------------------|
G|---------------------------------------------------------------|
D|---11-11-11--11h12-11-12/14-14-14---11-11-11-11-11-11-11\7-7---|
A|---------------------------------------------------------------|
E|---------------------------------------------------------------|

guitar1: (just keep repeating for the entire chorus part...)
e|------------------|
B|------------------|
G|------------------|
D|------------------|
A|---7---8----------|
E|---5---6--3h5-3---|


do this before doing the verse part...
guitar1:
e|-------------------------------------------------------------|
B|-------------------------------------------------------------|
G|-------------------------------------------------------------|
D|---2---2-2-2-2---2-2-2-2-2---3-3-3-3-2---2-2-2-2---2-2-2-2---|
A|---2---2-2-2-2---2-2-2-2-2---3-3-3-3-2---2-2-2-2---2-2-2-2---|
E|---0---0-0-0-0---0-0-0-0-0---1-1-1-1-0---0-0-0-0---0-0-0-0---|
                               ^                           ^
                               :---------repeat 3x---------:


just repeat the verse (different strumming pattern but the same chords used...) and the 
then for the ending part just do the same thing as the intro, but play all the guitars 
the same time...

Key:
T   - Tap (Strings)
PM  - Palm Muting
/   - Slide Up
\   - Slide Down
h   - Hammer-on
p   - Pull-off
~   - Let the note ringing
s   - Strum softly
c   - Continue and Continuation
^   - Bend
*   - Harmonics

<---------------lyrics--------------->
(lahat ng babangga ay magigiba)

verse1:
mahiwaga ang tadhana, at tayo'y muling magkaharap
basura ng lipunan, kailangang itapon at durugin sa isang iglap

chorus:
sa ating paglipad ang buong mundo'y mananatiling ligtas kahit kanino di aatras
sa ating paglipad ang buong mundo'y mananatiling ligtas kahit kanino di aatras
humanda ka...

verse2:
hindi tayo magkatulad, hindi mo ko kayang pigilin
wala ng dapat pag-usapan, walang pakundangan kitang tatapusin

chorus:
sa ating paglipad ang buong mundo'y mananatiling ligtas kahit kanino di aatras
sa ating paglipad ang buong mundo'y mananatiling ligtas kahit kanino di aatras
humanda ka...

(lahat ng babangga ay magigiba)...
humanda ka...
            
Hard to play? Try these video lessons and learn fast. | Correct




comments powered by Disqus
↑ Back to top | Tablatures and chords are parodies/interpretations of the original songs. You may use it for private study, scholarship, research or language learning purposes only