>
 >
Inspiration

Inspiration Guitar Tabs

Sanctus Real - Inspiration chords, tabs, tablatures, lyrics

Guitar lessons | Add/correct | Request | Top 50 tabs Artists:  A B C D E F G H I J K L M N O P Q R S T U V W X Y Z 0-9

Inspiration Guitar Tabs – Sanctus Real

CD, Sheet music, Poster

Do you like Inspiration? Share with your friends now
Tabs
Written by BulletSniper

Tuning: Standard

Intro/Verse

e-------------------------------------------|
B-------------------------------------------|
G-----0-0-----0---0-------0-0-1-1-0-0-------|
D-3-3-----1-1---1---1-----------------3-1---|  x5
A---------------------4-4-------------------|
E-------------------------------------------|

_-_-_-_-_-_-_-_-_-_-_-_-_-_-_-_-_-_-_-_-_-_-_-_-_-_-_

Pre-Chorus

e-------------------------------------------|
B-------------------------------------------|
G---1---1---1---1----1---1---8-8-8-8/--6-6--|
D---------1------------1-----8-8-8-8/--6-6--|
A-3---4-------4----3---------6-6-6-6/--4-4--|
E-------------------------------------------|

_-_-_-_-_-_-_-_-_-_-_-_-_-_-_-_-_-_-_-_-_-_-_-_-_-_-_

Chorus
x2

e-------------------4-----4---4-------------|
B-------------------4-----4---4-------------|
G---------------6-6---6-6---6---------------|
D-6-6--6-8-8--8-6-6---6-6---6---------------|
A-6-6--6-8-8--8-4-4---4-4---4---------------|
E-4-4--4-6-6--6-----------------------------|


e-------------------4--------6--------------|
B-------------------4--------6--------------|
G---------------6-6---6-6-6--8--------------|
D-6-6--6-8-8--8-6-6---6-6-6--8--------------|
A-6-6--6-8-8--8-4-4---4-4-4--6--------------|
E-4-4--4-6-6--6-----------------------------|

_-_-_-_-_-_-_-_-_-_-_-_-_-_-_-_-_-_-_-_-_-_-_-_-_-_-_

Post-Chorus

e-------------------------------------------|
B-------------------------------------------|
G-5-5-6--6-------0-0-1-1-0-0-3-0------------|
D-5-5-6--6---1-1----------------------------|
A-3-3-4--4----------------------------------|
E-------------------------------------------|

_-_-_-_-_-_-_-_-_-_-_-_-_-_-_-_-_-_-_-_-_-_-_-_-_-_-_

Intro/Verse
_-_-_-_-_

Pre-Chorus
_-_-_-_-_

Chorus
_-_-_-_-_

Solo

(listen to the song to get the strumming pattern)

[Rhythm Guitar]
e--------------------------------------------------|
B--------------------------------------------------|
G--------------------------------------------------|
D-3--5--6---3--1--6--5----1------------------------|
A-3--5--6---3--1--6--5----1------------------------|
E-1--3--4---1-----4--3-----------------------------|


e--------------------------------------------------|
B--------------------------------------------------|
G-------------------3~-----------------------------|
D-3--5--6--5--1--1--3~-----------------------------|
A-3--5--6--5--1--1--1~-----------------------------|
E-1--3--4--3--3------------------------------------|

_-_-_-_-_-_-_-_-_-_-_-_-_-_-_-_-_-_-_-_-_-_-_-_-_-_-_

Chorus (Palm Muted) x1

Chorus (not palm muted) x4

_-_-_-_-_-_-_-_-_-_-_-_-_-_-_-_-_-_-_-_-_-_-_-_-_-_-_

Outro

[Lead Guitar]
e---------------------------------------------------|
B--8-8---8-8---8--8-8---8-8---8-9\------------------|
G------6-----6--------6-----6-----------------------|
D---------------------------------------------------|
A---------------------------------------------------|
E---------------------------------------------------|


[Rhythm Guitar]
e---4---------4\------------------------------------|
B---4---------4\------------------------------------|
G---6-x14-----4\------------------------------------|
D---6---------6\------------------------------------|
A---4---------6\------------------------------------|
E-------------4\------------------------------------|





Comments


Popular Sanctus Real tabs & chords
All I Want Bass Tabs
Black Coal Chords
Lead Me 1 Chords
On Your Own Chords
Take Over Me Chords
The Face Of Love Chords
Til I Got To Know You Chords
I Love You Tabs
Promises Intro Tabs
Dont Give Up Ukulele


Song lyrics



↑ Back to top | Tablatures and chords are parodies/interpretations of the original songs. You may use it for private study, scholarship, research or language learning purposes only
© 2014 AZChords.com Contact us | Privacy policy | DMCA | Add/correct tabs | Request tabs | Top 50 tabs