» » »

Carl Calls Kristie Tabs (ver.2)

Artists:  A B C D E F G H I J K L M N O P Q R S T U V W X Y Z # 

Carl Calls Kristie Tabs (ver.2)

Sanchez Paul
Rating:
0/5 (0 votes)

Hard to play? Try these video lessons and learn fast.
                "Carl Calls Kristie"  by Paul Sanchez
(instrumental)

I broke down the parts (verses, I guess) and numbered them.
The numbered parts go in the following order: 1,1,2,1,2,3.

1: (mostly from a D chord)
e|-----0-2-|---2-7-5-|-----0-2-|-2-2---0-|-
B|---3-----|-3-------|---3-----|-----3---|-
G|-2-------|---------|-2-------|---------|-

e|-----0-2-|---2-7-5-|-7-5-3-2-|-----0---|-
B|---3-----|-3-------|---------|---3---3-|-
G|-2-------|---------|---------|-2-------|-


2:
e|-5-7-9-10-|-10-9-7-5-|-5-7-9-10-|-10-9-10-12-|-
B|----------|----------|----------|------------|-
G|----------|----------|----------|------------|-

e|-14-12-10-10-|-10-9-7-5-|-7-5-3-2-|-----0---|-
B|-------------|----------|---------|---3---3-|-
G|-------------|----------|---------|-2-------|-


3:
e|-----0-2-|-----0---|-
B|---3-----|---3---3-|-
G|-2-------|-2-------|-
            
Hard to play? Try these video lessons and learn fast. | Correct




comments powered by Disqus
↑ Back to top | Tablatures and chords are parodies/interpretations of the original songs. You may use it for private study, scholarship, research or language learning purposes only