>
 >
Uprising Down Under 1

Uprising Down Under 1 Guitar Tabs

Sam Roberts - Uprising Down Under 1 chords, tabs, tablatures, lyrics

Guitar lessons | Add/correct | Request | Top 50 tabs Artists:  A B C D E F G H I J K L M N O P Q R S T U V W X Y Z 0-9

Uprising Down Under 1 Guitar Tabs – Sam Roberts

CD, Sheet music, Poster

Do you like Uprising Down Under 1? Share with your friends now
ChordsTabsTabs v2Tabs v3Ukulele

So, I found enough improvements to make a new version of this 
song appropriate: more accurate intro riff, better strumming 
representation, a fuller-sounding chorus progression, and better 
bridge chords. Try it, you'll like it!

Intro/Verse:
   A                   D
e:-0---0-0-0-0---0-0-0-0---0-0-0-0-0---0--|
B:-5---5-5-5-5---5-5-5-7---7-7-7-7-7---7--|
G:-6---6-6-6-6---6-6-6-6---6-6-6h7-6-5/6--|   x2 (for intro)
D:-7---7-7-7-7---7-7-7-0-----0---0-----0--|   x4 (for verse)
A:-0-----0---0-----0---0-----0---0-----0--|
E:----------------------------------------|

Chorus:
   A                       E         D
e:-0---0-0-0-0---0-0-0-0---0-0-0-0---2-2-2-2-2-2-|
B:-5---5-5-5-5---5-5-5-0---0-0-0-0---3-3-3-3-3-3-|
G:-6---6-6-6-6---6-6-6-1---1-1-1-1---2-2-2-2-2-2-|   x4
D:-7---7-7-7-7---7-7-7-2---2-2-2-2---0-0-0-0-0-0-|
A:-0-----0---0-----0---2---2-2-2-2---------------|
E:---------------------0-----0-------------------|

A                             D              
   You feel the weight of the world on your shoulders
   As everyday gets           shorter and colder
   And hand in hand we        walk through a land of fire
   The mountains bleed        red as the sun gets high-er

CHORUS:
A                           E             D    
   All the things that you  want          I'll provide
   Till your footprint  is  swept away    by the tide
   And I can wa-i-t for  a  while,        I don't mind
   Yeah, I can wa-i-t for a while, 'cause I got time

Repeat Intro

A                           D                 
   I wish it was            less     of the way it is 
   I wish it were           more   of the way it could be
   An' you can put     your faith in me for a while
   In the end I           hope you're free 'cause I'll be out of style

CHORUS (w/ extra "I got time" at end) to BRIDGE:

Whoever said you can't be saved by a song?            Bm, Bm/A, G, F#m
Whoever said that was stringing you along             Bm, D, G, F#m
We're all afraid to be dead and gone                  Bm, A, D, F#m
This will live on, it will live on, it will live on   Bm, G, F#m, E (use E-D riff from outro)


CHORUS then alt chorus:

A                                E          D
   All the things you're looking for,       I hope you find
   Before your footprint is      swept away by the tide
   And I can wait for a          while,     I don't mind
   Yeah, I can wait for a        while,     I got time
   And I can wa-i-t for a        while,     I don't mind
   Yeah, I can wa-i-t for a      while,     I got time...
                                            I got time...

Outro (repeat w/ guitar solo):
   A                   E          D
e:-0---0-0-0-0---0-0-0-0--0-0-0---0-0---0--|
B:-5---5-5-5-5---5-5-5-0--0-0-0---7-7---7--|
G:-6---6-6-6-6---6-6-6-1--1-1-1-6h7-6-5/6--|
D:-7---7-7-7-7---7-7-7-2--2-2-2---0-----0--|
A:-0-----0---0-----0---2----2-----0-----0--|
E:---------------------0----0--------------|
                                 Slowly last time





Comments


Popular Sam Roberts tabs & chords
Oh Maria Chords
Oh Maria 3 Chords
Paranoia Chords
Partition Blues Chords
My Love Is Freeing 1 Tabs
Bootleg Saint Ukulele
Every Part Of Me Ukulele
Sundance Ukulele
Taj Mahal Ukulele
Where Have All The Good People Gone Ukulele


Song lyrics



↑ Back to top | Tablatures and chords are parodies/interpretations of the original songs. You may use it for private study, scholarship, research or language learning purposes only
© 2014 AZChords.com Contact us | Privacy policy | DMCA | Add/correct tabs | Request tabs | Top 50 tabs