» » »

Sam Roberts, Love At The End Of The World Chords (ver.1)

Artists:  A B C D E F G H I J K L M N O P Q R S T U V W X Y Z # 

Love At The End Of The World Chords (ver.1)

Sam Roberts Tabs
 Rating:
3.6/5 (5 votes)
Love At The End Of The World lessons Tabs too difficult? Try these video lessons and learn fast
1
                i'm pretty sure this is kind of right, it is my first tab so please feel free to email 

IT CAN ALSO BE PLAYED WITH CAPO ON THE 3RD FRET!!!


Sam Roberts
Love at the End of the World

chords verse:  B
chorus:  B, A, G, F#
per: B, G#, A, B :i think don't quote me.


intro/verse:

B
This is love at the end of the world

You don't need diamonds and you don't need pearls
riff 1
------------------------------------------------|
------------------------------------------------|
------------------------------------------------|
------------------------------4-3-2-0---0-------|
---9-8-7-5---5---------OR---2---------2---2-----|
-7---------7---7--------------------------------|

B
Water boils on the seven seas

Rivers of blood and she's setting me free
riff 1
And you're still near me, baby


B
Smoke rising from an open field
                                   riff 1
Don't you know that the threat is real


You look around but you don't see snow
riff 1
The heat is rising, baby


B                   A
This is love at the end of the world
        G           F#
There's still love
                      B
At the end of the world


(the rest is self exp.)


Two wars and a revolution
Got me praying for absolution
There's blood on these hands, baby
Preacher saying that the end is nigh
Standing on a soapbox a hundred feet high
You're still by my side, baby

B
Light fades, becomes shade
Ab                           A           B
You're holding on but you're slipping away
B            A        B
Till I can't feel you anymore


This is love at the end of the world
There's still love
At the end of the world

SOLO:

-------------------------------------------------|
-12-12-10---12-12-10----12-12-10----12-12-10-----|
---------11---------11----------11----------11---|
-------------------------------------------------|
-------------------------------------------------|
-------------------------------------------------|


--------------------------------------------|
--7-7-7----7-7-7----7-7-7----7-7-7----------|
--7-7-7-9--7-7-7-9--7-7-7-9--7-7-7-9--------|
--------9--------9--------9--------9--------|
--------------------------------------------|
--------------------------------------------|


Red lips, alabaster hands
Ooh girl, what you do to a man
The heat is rising, baby
You don't think, you just follow the herd
And you don't need bullets for a war of words now
They want what we've got, baby


Light fades, becomes shade
You're holding on but you're slipping away
Till I can't feel you anymore


This is love at the end of the world
There's still love
At the end of the world


This is love at the end of the world
There's still love
At the end of the world

enjoy~
~Joe  =)


ANY COMMENTS OR REVISES WILL HELP. I KNOW THAT SOLO ISN'T THAT GREAT. A START I HOPE.  =)
            
Submit corrections

comments powered by Disqus
↑ Back to top | Sam Roberts Chords for Love At The End Of The World. Lyrics for acoustic guitar and electric guitar. 1 Tablatures and chords are parodies/interpretations of the original songs. You may use it for private study, scholarship, research or language learning purposes only