» » »

Love At The End Of The World Tabs (ver.1)

Artists:  A B C D E F G H I J K L M N O P Q R S T U V W X Y Z # 

Love At The End Of The World Tabs (ver.1)

Sam Roberts
Rating:
2/5 (2 votes)

Hard to play? Try these video lessons and learn fast.
                Love At The End Of The World – Sam Roberts Band


Tuning: Standard

Looking at some videos of this song live, you can see that that there is supposed to be 
capo on either the third or fourth fret. This is tabbed without a capo.

These are just the chords and notes used in the song to get you started. It should be 
enough to figure out the timing and when to repeat.

Main Riff: Theses chords are strummed more, but I'm too lazy to count.

e|---------------------------------------------------------------------------|
B|---------------------------------------------------------------------------|
G|------4444444444-----------------------------------------------------------|
D|------4444444444------4-3-2-0---0------------------------------------------|
A|------2222222222----2---------2---2----------------------------------------|
E|---------------------------------------------------------------------------|

Second Riff:
e|---------------------------------------------------------------------------|
B|---------------------------------------------------------------------------|
G|----44-44------------------------------------------------------------------|
D|----42-44--666-7-----------------------------------------------------------|
A|----22-22--666-5-----------------------------------------------------------|
E|-----------444-5-----------------------------------------------------------|

e|---------------------------------------------------------------------------|
B|-Tremelo------------------------Tremelo---------Tremelo--------------------|
G|---16-------16p14-----14---------------------------------------------------|
D|-------------------16------------------16---------21-----------------------|
A|---------------------------------------------------------------------------|
E|---------------------------------------------------------------------------|
            
Hard to play? Try these video lessons and learn fast. | Correct




comments powered by Disqus
↑ Back to top | Tablatures and chords are parodies/interpretations of the original songs. You may use it for private study, scholarship, research or language learning purposes only