array
(
    
'ifeelyou' => 'ifeelyou'
    'samroberts' 
=> 'samroberts'
)
I Feel You Tabs (ver. 1) by Sam Roberts @ AZ CHORDS.COM
» » »

I Feel You Tabs (ver.1)

Artists:  A B C D E F G H I J K L M N O P Q R S T U V W X Y Z # 

I Feel You Tabs (ver.1)

Sam Roberts
Rating:
1/5 (1 vote)

Hard to play? Try these video lessons and learn fast.
                Main Intro Riff
e|--------------------------------------------------|
B|--------------------------------------------------|
G|--------------------------------------------------|
D|-----------------------7--------------------5-----|
A|---------------------5--------------------5-------|
E|--5-5--5-5--5-5--5-8-----5--5-5--5-5--5-8-----5---|

e|--------------------------------------------------|
B|--------------------------------------------------|
G|--------------------------------------------------|
D|------------------7-------------------------------|
A|----------------5---------------------------------|
E|--5-5--5-5--5-8-----5--5-5-333333-10-10-10-8------|



Lead Intro Riff (Starts at 0:38)

e|----------------------------------------------------|
B|----------------------------------------------------|
G|---------9---7/9-7--------------9---7/9--7----------|
D|--7--10------------10----3--10-------------10-------|
A|----------------------------------------------------|
E|----------------------------------------------------|

e|--------------------------------------------------------------------|
B|--------------------------------------------------------------------|
G|---------9---7/9-7-----------7/9-9-9-9-9p7----------7-5---------5---|
D|--7--10------------10-----3----------------10-5-5-5-----7-7-5-7---7-|
A|--------------------------------------------------------------------|
E|--------------------------------------------------------------------|

e|----------------------------------------------------|
B|----------------------------------------------------|
G|---------9---7/9-7--------------9---7/9--7----------|
D|--10---------------10----3--10-------------10-------|
A|----------------------------------------------------|
E|----------------------------------------------------|

e|---------------------------------------------------------------------|
B|---------------------------------------------------------------------|
G|---------9----10p9--7----------7/9-9-9-9-9p7------7-7p5---------5----|
D|--7--10----------------10---3----------------10-5-------7-7-5-7---7--|
A|---------------------------------------------------------------------|
E|---------------------------------------------------------------------|

(01:17)
e|----------------------------------------------------|
B|----------------------------------------------------|
G|------9-12p9-7-7/5--------------9---7/9-7-----------|
D|--10---------------------3--10------------10--------|
A|----------------------------------------------------|
E|----------------------------------------------------|

e|------------------------------------------------------------------|
B|------------------------------------------------------------------|
G|--------9---10p9-7----------7/9-9-9-9-9p7------7-7p5---------5----|
D|-7--10-------------10----3----------------10-5-------7-7-5-7---7--|
A|------------------------------------------------------------------|
E|------------------------------------------------------------------|

(1:36)
e|-------------------------------------------|
B|-------------------------------------------|
G|----7/9-9-9-9-9p7------7-7p5---------5-----|
D|-3----------------10-5-------7-7-5-7---7---|
A|-------------------------------------------|
E|-------------------------------------------|

e|-------------------------------------------|
B|-------------------------------------------|
G|----7/9-9-9-9-9p7-5-7----7-5----------5----|
D|-3--------------------5-------7-7-5-7------|
A|-------------------------------------------|
E|-------------------------------------------|


Verse Riff
e|--------------------------------------------------------------------|
B|--------------------------------------------------------------------|
G|--------------------------------------------------------------------|
D|--------------------------------------------------------------------|
A|--------------------------------------------------------------------|
E|--5-5-5-585-5-5-3---5-5-5-585-5-5-3-1-1-111-8-8-8-8-5-5-5-585-5-5-3-|

e|--------------------------------------------------------------------|
B|--------------------------------------------------------------------|
G|--------------------------------------------------------------------|
D|--------------------------------------------------------------------|
A|--------------------------------------------------------------------|
E|--5-5-5-585-5-5-3---5-5-5-585-5-5-3-1-1-111-3-3-333-5-5-5-585-5-5-3-|

The part at 1:58, where I wrote in the tab to play as the eighth fret on the low E
string, you'll probably notice doesn't sound quite right. The note in the song is a C note
but it's too low for a standard tuned guitar to play (it might even be the bass and 
guitar together) so I just wrote down the lowest C you can play

Haven't figured out the chorus yet but I'm working on it!
            
Hard to play? Try these video lessons and learn fast. | Correct




comments powered by Disqus
↑ Back to top | Tablatures and chords are parodies/interpretations of the original songs. You may use it for private study, scholarship, research or language learning purposes only