>
 >
Fixed To Ruin

Fixed To Ruin Chords

Sam Roberts - Fixed To Ruin chords, tabs, tablatures, lyrics

Guitar lessons | Add/correct | Request | Top 50 tabs Artists:  A B C D E F G H I J K L M N O P Q R S T U V W X Y Z 0-9

Fixed To Ruin Chords – Sam Roberts

CD, Sheet music, Poster

Do you like Fixed To Ruin? Share with your friends now
ChordsTabsUkulele
-------------------------------------------------------------------------------
-------------------------------------------------------------------------------

Tuning:standard

Intro:
   E
e|-x-----x-x--|    -x----x-x--|
B|-9-----9-9--|    -9----x-x--|
G|-x-----x-x--|    -x----0-2--|
D|-9-----9-9--|x7  -9----0-2--|
A|-7-----x-0--|    -7----2-0--|
E|-0-----7-0--|    -0----3-x--|

Verse 1:
   E
e|-x-----x-x--|    
B|-9-----9-9--|    
G|-x-----x-x--|    
D|-9-----9-9--|x8  
A|-7-----x-0--|    
E|-0-----7-0--| 

Chorus:
   B    A
e|-7----5--|
B|-7----5--|
G|-8----6--|
D|-9----7--|
A|-9----7--|
E|-7----5--|

Verse 2:
   E
e|-x-----x-x--|    -x----x-x--|
B|-9-----9-9--|    -9----x-x--|
G|-x-----x-x--|    -x----0-2--|
D|-9-----9-9--|x7  -9----0-2--|
A|-7-----x-0--|    -7----2-0--|
E|-0-----7-0--|    -0----3-x--|

  E
e|-x-----x-x--|    
B|-9-----9-9--|    
G|-x-----x-x--|    
D|-9-----9-9--|x8  
A|-7-----x-0--|    
E|-0-----7-0--|

Chorus:
   B    A
e|-7----5--|
B|-7----5--|
G|-8----6--|
D|-9----7--|
A|-9----7--|
E|-7----5--|

 E
e|-x-----x-x--|    
B|-9-----9-9--|    
G|-x-----x-x--|    
D|-9-----9-9--|x4  
A|-7-----x-0--|    
E|-0-----7-0--|

Bridge:
At the 2nd "Oooooh"
e|---------------------------------|
B|---------------------------------|
G|-7-7-7-7-7-7-7-7-7-7-7-7-7-7-7-6-|
D|-9-9-9-9-9-9-9-9-9-9-9-9-9-9-9-7-|x2
A|---------------------------------|
E|---------------------------------|

e|-------------------------------|
B|-------------------------------|
G|-7-7-7-7-7-7-7-7-7-7-7-7-7-7-7-|
D|-9-9-9-9-9-9-9-9-9-9-9-9-9-9-9-|
A|-------------------------------|
E|-------------------------------|
   E
E|-7-7-|
B|-9-9-|
G|-9-9-|
D|-9-9-|
A|-7-7-|
E|-x-x-|

 E
e|-x-----x-x--|    
B|-9-----9-9--|    
G|-x-----x-x--|    
D|-9-----9-9--|x4  
A|-7-----x-0--|    
E|-0-----7-0--|

Verse 3:
   E
e|-x-----x-x--|    -x----x-x--|
B|-9-----9-9--|    -9----x-x--|
G|-x-----x-x--|    -x----0-2--|
D|-9-----9-9--|x4  -9----0-2--|
A|-7-----x-0--|    -7----2-0--|
E|-0-----7-0--|    -0----3-x--|

 E
e|-x-----x-x--|    
B|-9-----9-9--|    
G|-x-----x-x--|    
D|-9-----9-9--|x4  
A|-7-----x-0--|    
E|-0-----7-0--|

Chorus:
   B    A
e|-7----5--|
B|-7----5--|
G|-8----6--|
D|-9----7--|
A|-9----7--|
E|-7----5--|

 E
e|-x---------|    
B|-9---------|    
G|-x---------|    
D|-9---------|x2  
A|-7---------|    
E|-0---------|

   B    A
e|-7----5--|
B|-7----5--|
G|-8----6--|
D|-9----7--|
A|-9----7--|
E|-7----5--|

   E
e|-x-----x-x--|    -x----x-x--|
B|-9-----9-9--|    -9----x-x--|
G|-x-----x-x--|    -x----0-2--|
D|-9-----9-9--|x6  -9----0-2--|
A|-7-----x-0--|    -7----2-0--|
E|-0-----7-0--|    -0----3-x--|

   E
e|-0----3-0-|
B|-0----0-2-|
G|-1----0-2-|
D|-2----0-2-|x4
A|-2----2-0-|
E|-0----3-x-|

   E
e|-0----3-0--0------||
B|-0----0-2--0------||
G|-1----0-2--1------||
D|-2----0-2--2------||
A|-2----2-0--2------||
E|-0----3-x--0------||



| /  slide up
| \  slide down
| h  hammer-on
| p  pull-off
| ~  vibrato
| +  harmonic
| x  Mute note
===============================================================================





Comments


Popular Sam Roberts tabs & chords
Bootleg Saint 1 Chords
Detroit '67 1 Chords
Lions Of The Kalahari Chords
Tractor Beam Blues Chords
With A Bullet Chords
Words & Fire Chords
Mystified Heavy Intro Tabs
Dont Walk Away Eileen Ukulele
Mind Flood Ukulele
Partition Blues Ukulele


Song lyrics



↑ Back to top | Tablatures and chords are parodies/interpretations of the original songs. You may use it for private study, scholarship, research or language learning purposes only
© 2014 AZChords.com Contact us | Privacy policy | DMCA | Add/correct tabs | Request tabs | Top 50 tabs