» » »

Sam Roberts, Fixed To Ruin Tabs (ver.1)

Artists:  A B C D E F G H I J K L M N O P Q R S T U V W X Y Z # 

Fixed To Ruin Tabs (ver.1)

Sam Roberts Tabs
 Rating:
4.2/5 (5 votes)
Fixed To Ruin lessons Tabs too difficult? Try these video lessons and learn fast
1
                              Fixed to Ruin
               Sam Roberts
-------------------------------------------

The Main Riff goes something like this:
   E                  G  A
e|-------------------------|
B|---9---9---9-9-9-9-------|
G|---9---9---9-9-9-9--5--7-|.
D|---9---9---9-9-9-9--5--7-|.
A|---7---7---7-7-7-7--5--7-|
E|-0---0---0-0-0-0-0--3--5-|
(sometimes it's just the E chord, listen to the CD, it's pretty obvious.)

then...
  B
|-7------------|
|-7------------|
|-8------------|
|-9------------|
|-9------------|
|-7------------|
She can dance like she got no bones

  A         E
|-5-----------|
|-5---------9-|
|-6---------9-|
|-7---------9-|
|-7---------7-|
|-5---------0-|
I Forge-e-e-et I'm all alone

and the Bridge:
(oooooooh I'd give it up for you...)
e|-------------------------------|
B|-------------------------------|
G|-7-7-7-7-7-7-7-7-7-7-7-7-7-7-6-|
D|-9-9-9-9-9-9-9-9-9-9-9-9-9-9-7-|
A|-------------------------------|
E|-------------------------------|
(be sure to mute in between)

And that's (basically) it, Have fun!
            
Submit corrections

comments powered by Disqus
↑ Back to top | Sam Roberts Tabs for Fixed To Ruin. Lyrics for acoustic guitar and electric guitar. 1 Tablatures and chords are parodies/interpretations of the original songs. You may use it for private study, scholarship, research or language learning purposes only