» » »

No Size That Small Bass tabs (ver.2)

Artists:  A B C D E F G H I J K L M N O P Q R S T U V W X Y Z # 

No Size That Small Bass tabs (ver.2)

Samiam
Rating:
0/5 (0 votes)

Hard to play? Try these video lessons and learn fast.
                Samiam - no size that small

just these 2 riffs played all the way through

Riff 1

G|---------------------------------------------------------------|
D|-------------------------------2---2-2-2-2-2-------------------| 
A|-------------2-5---5-5-5-5-5-2---------------2-0---0-0-0-3-2-0-|
E|-3---3-3-3-3---------------------------------------------------|

Riff 2

G|-------------4-----------------0---------------0-4-4-4-4-4-4-5-4-|
D|-5-5-5-5-5-5---5-0-0-0-0-0-0-2---2-2-2-2-2-2-0-------------------| 
A|-----------------------------------------------------------------|
E|-----------------------------------------------------------------|

Ending

G|------------------------|
D|------------------------| 
A|------------------------|
E|-3~~~~~~~////15~~~~~~~~-|
            
Hard to play? Try these video lessons and learn fast. | Correct




comments powered by Disqus
↑ Back to top | Tablatures and chords are parodies/interpretations of the original songs. You may use it for private study, scholarship, research or language learning purposes only