» » »

Mario Kart Love Song Tabs (ver.3)

Artists:  A B C D E F G H I J K L M N O P Q R S T U V W X Y Z # 

Mario Kart Love Song Tabs (ver.3)

Sam Hart
Rating:
0/5 (0 votes)

Hard to play? Try these video lessons and learn fast.
                to the actual way he plays this song.

This is done in standard tuning, with a capo on the 3rd fret, and all notes are fingerpicked.

*Note
The "X's" represent where he mutes the strumming.




                     Chords Used
          C     G6add11   Am      Fmaj7      Em     
     E----0-------0-------0-------0-------0-----|
     B----1-------1-------1-------1-------0-----|
     G----0-------0-------2-------2-------0-----|
     D----2-------0-------2-------3-------2-----|
     A----3-------2-------0-------3-------2-----|
     E----3-------3-------X-------X-------0-----|




Intro

 C                         G6add11					
E-----X-----X-----X-----X--|-----X-----X---X-----X----|
B-----X---1-X-----X---1-X--|-----X---1-X---X-3-0-X----|
G-----X-0---X-----X-0---X--|-----X-0---X---X-0-0-X----|
D--------2----0h2----2-----|-----X--0--X---X-----X----|
A---3----------------------|--------------------------|
E--------------------------|---3---------3------------|

 Am                        Fmaj7
              Do    Do       Do         DOO!	
E-----X-----X-----X-----X--|-----X-----X---X-----X----|
B-----X---1-X-----X---1-X--|-----X---1-X---X---1-X----|
G-----X-2---X-----X-2---X--|-----X-2---X---X-2---X----|
D--------2-----------2-----|--------3---------3-------|
A---0----------0-----------|---3---------3------------|
E--------------------------|--------------------------|



Verse 1

 C                         G6add11
 You be my princess...	    I'll follow...				
E-----X-----X-----X-----X--|-----X-----X---X-----X----|
B-----X---1-X-----X---1-X--|-----X---1-X---X---1-X----|
G-----X-0---X-----X-0---X--|-----X-0---X---X-0---X----|
D--------2-----------2-----|-----X--0--X---X--0--X----|
A---3----------3-----------|--------------------------|
E--------------------------|---3---------3------------|

 Am                        Fmaj7
 Protect you from...	    I promise.
E-----X-----X-----X-----X--|-----X-----X---X-----X----|
B-----X---1-X-----X---1-X--|-----X---1-X---X---1-X----|
G-----X-2---X-----X-2---X--|-----X-2---X---X-0---X----|
D--------2-----------2-----|--------3---------3-------|
A---0----------0-----------|---3---------3------------|
E--------------------------|--------------------------|



Verse 2

 C                         G6add11
 No one will... 	    If you...				
E-----X-----X-----X-----X--|-----X-----X---X-----X----|
B-----X---1-X-----X---1-X--|-----X---1-X---X---1-X----|
G-----X-0---X-----X-0---X--|-----X-0---X---X-0---X----|
D--------2-----------2-----|-----X--0--X---X--0--X----|
A---3----------3-----------|--------------------------|
E--------------------------|---3---------3------------|

 Am                        Fmaj7
 When we slide...	    In our wheels...
E-----X-----X-----X-----X--|-----X-----X---X-----X----|
B-----X---1-X-----X---1-X--|-----X---1-X---X---1-X----|
G-----X-2---X-----X-2---X--|-----X-2---X---X-0---X----|
D--------2-----------2-----|--------3---------3-------|
A---0----------0-----------|---3---------3------------|
E--------------------------|--------------------------|



Chorus

 C                         G6add11
 The finish line 	    Is just...				
E-----X-----X-----X-----X--|-----X-----X---X-----X----|
B-----X---1-X-----X---1-X--|-----X---1-X---X---1-X----|
G-----X-0---X-----X-0---X--|-----X-0---X---X-0---X----|
D--------2-----------2-----|-----X--0--X---X--0--X----|
A---3----------3-----------|--------------------------|
E--------------------------|---3---------3------------|

 Am                        Fmaj7
 I'll pause this...	    So our love...
E-----X-----X-----X-----X--|-----X-----X---X-----X----|
B-----X---1-X-----X---1-X--|-----X---1-X---X---1-X----|
G-----X-2---X-----X-2---X--|-----X-2---X---X-2---X----|
D--------2-----------2-----|--------3---------3-------|
A---0----------0-----------|---3---------3------------|
E--------------------------|--------------------------|



Verse 3

 C                         G6add11
 The blue shell... 	    If you hang...				
E-----X-----X-----X-----X--|-----X-----X---X-----X----|
B-----X---1-X-----X---1-X--|-----X---1-X---X---1-X----|
G-----X-0---X-----X-0---X--|-----X-0---X---X-0---X----|
D--------2-----------2-----|-----X--0--X---X--0--X----|
A---3----------3-----------|--------------------------|
E--------------------------|---3---------3------------|

 Am                        Fmaj7
 But never look...	    I'll catch up...
E-----X-----X-----X-----X--|-----X-----X---X-----X----|
B-----X---1-X-----X---1-X--|-----X---1-X---X---1-X----|
G-----X-2---X-----X-2---X--|-----X-2---X---X-0---X----|
D--------2-----------2-----|--------3---------3-------|
A---0----------0-----------|---3---------3------------|
E--------------------------|--------------------------|



Bridge

 Em                        Fmaj7
 Don't worry about	    Bowser or Dk
E-----X-----X-----X-----X--|-----X-----X---X-----X----|
B-----X---0-X-----X---0-X--|-----X---1-X---X---1-X----|
G-----X-0---X-----X-0---X--|-----X-2---X---X-2---X----|
D--------2-----------2-----|--------3---------3-------|
A---2----------2-----------|---3---------3------------|
E--------------------------|--------------------------|

 Em                        Fmaj7
 Eat this glowing...	    And they'll all...
E-----X-----X-----X-----X--|-----X-----X---X-----X----|
B-----X---0-X-----X---0-X--|-----X---1-X---X---1-X----|
G-----X-0---X-----X-0---X--|-----X-2---X---X-2---X----|
D--------2-----------2-----|--------3---------3-------|
A---2----------2-----------|---3---------3------------|
E--------------------------|--------------------------|



Chorus x2

 C                         G6add11
 The finish line 	    Is just...				
E-----X-----X-----X-----X--|-----X-----X---X-----X----|
B-----X---1-X-----X---1-X--|-----X---1-X---X---1-X----|
G-----X-0---X-----X-0---X--|-----X-0---X---X-0---X----|
D--------2-----------2-----|-----X--0--X---X--0--X----|
A---3----------3-----------|--------------------------|
E--------------------------|---3---------3------------|

 Am                        Fmaj7
 I'll pause this...	    So our love...
E-----X-----X-----X-----X--|-----X-----X---X-----X----|
B-----X---1-X-----X---1-X--|-----X---1-X---X---1-X----|
G-----X-2---X-----X-2---X--|-----X-2---X---X-2---X----|
D--------2-----------2-----|--------3---------3-------|
A---0----------0-----------|---3---------3------------|
E--------------------------|--------------------------|



End

 C                         G6add11
 To the mushroom... 	    And the...				
E-----X-----X-----X-----X--|-----X-----X---X-----X----|
B-----X---1-X-----X---1-X--|-----X---1-X---X---1-X----|
G-----X-0---X-----X-0---X--|-----X-0---X---X-0---X----|
D--------2-----------2-----|-----X--0--X---X--0--X----|
A---3----------3-----------|--------------------------|
E--------------------------|---3---------3------------|

 Am                        Fmaj7
 And the star...	    And the reverse...
E-----X-----X-----X-----X--|-----X-----X---X-----X----|
B-----X---1-X-----X---1-X--|-----X---1-X---X---1-X----|
G-----X-2---X-----X-2---X--|-----X-2---X---X-2---X----|
D--------2-----------2-----|--------3---------3-------|
A---0----------0-----------|---3---------3------------|
E--------------------------|--------------------------|


Credits
Original song:
            
Hard to play? Try these video lessons and learn fast. | Correct




comments powered by Disqus
↑ Back to top | Tablatures and chords are parodies/interpretations of the original songs. You may use it for private study, scholarship, research or language learning purposes only