» » »

Sam Cooke, Bring It On Home To Me Tabs (ver.1)

Artists:  A B C D E F G H I J K L M N O P Q R S T U V W X Y Z # 

Bring It On Home To Me Tabs (ver.1)

Sam Cooke Tabs
Rating:
0/5 (0 votes)
Bring It On Home To Me lessons Tabs too difficult? Try these video lessons and learn fast
                Hi I love this song so i tabbed it. It's played with a piano, violin and a little
bit of saxophone at the ending, but this tab is for a guitar.

This tab fits perfectly with the original 1962 version of "Bring it on home" by Sam Cooke.
There is a cover done by Roger Ridley R.I.P with Playing For Change which
definitely has to be checked out.

Tuning: Standard EADGBe
Key: C Major
Preferably acoustic guitar, if electric than clean.

Chords  C     G     F     G*
|-------8----10-----8-----7----|
|-------8----12----10-----8----|
|-------9----12----10-----7----|
|------10----12----10-----9----|
|------10----10-----8----10----|
|-------8-----X-----X-----X----|

Or the regular C G F shapes. Peace :D

Intro
e----------------------------------------------------|
B----------------------------------------------------|
G---------------/9--/9--12--14--/9--7------7---------|
D--------7--10-------------------------10-----7--10--|
A----10----------------------------------------------|
E----------------------------------------------------|

e-------------------------------|
B-------------------------------|
G--/7--5--/9--12--7--5--5p7-----|
D----------------------------7--|
A-------------------------------|
E-------------------------------|

e---------------------------------------------------|
B---------------------------------------------------|
G--5--/9--5--7--5--9--/7--5-----5-------------------|
D----------------------------7-------------7--------|
A----------------------------------/7--10-----10----|
E---------------------------------------------------|

       C                G
If you ever, change your mind,
      C                   F
about leavin', leavin' me behind,
        C
oh, oh, bring it to me,
                 G
bring your sweet lovin',
                    C         F            C            G
bring it on home to me, yeah (yeah), yeah (yeah), yeah (yeah)

         C                 G
I know I laughed, when you left,
           C                 F
but, now I know, I only hurt myself,
        C
oh, oh, bring it to me,
                 G
bring your sweet lovin',
                    C         F            C            G
bring it on home to me, yeah (yeah), yeah (yeah), yeah (yeah)

              C            G
I'll give you jewelery,and money too,
           C                              F
that ain't all, that ain't all I'd do for you,
               C
oh, oh, if you bring it to me,
                 G
bring your sweet lovin',
                    C         F            C            G
bring it on home to me, yeah (yeah), yeah (yeah), yeah (yeah)

              C               G
You know I'll always, be your slave,
         C                    F
till I'm buried, buried in my grave,
           C
oh, honey, bring it to me,
                 G
bring your sweet lovin',
                    C         F            C            G
bring it on home to me, yeah (yeah), yeah (yeah), yeah (yeah)

     C                 G
I'll try, to treat you right,
        C                          F
but you stayed out, stayed out, in line,
                   C
but i forgive you, bring it to me,
                 G
bring your sweet lovin',
                    C         F            C            G
bring it on home to me, yeah (yeah), yeah (yeah), yeah (yeah)
      F            C            G
yeah (yeah), yeah (yeah), yeah (yeah) [Fade out]

One love..
            

comments powered by Disqus
↑ Back to top | Sam Cooke Tabs for Bring It On Home To Me. Lyrics for acoustic guitar and electric guitar. Tablatures and chords are parodies/interpretations of the original songs. You may use it for private study, scholarship, research or language learning purposes only