>
 >
Sex Drugs And Rock N Roll

Sex Drugs And Rock N Roll Guitar Tabs

Saliva - Sex Drugs And Rock N Roll chords, tabs, tablatures, lyrics

Guitar lessons | Add/correct | Request | Top 50 tabs Artists:  A B C D E F G H I J K L M N O P Q R S T U V W X Y Z 0-9

Sex Drugs And Rock N Roll Guitar Tabs – Saliva

CD, Sheet music, Poster

Do you like Sex Drugs And Rock N Roll? Share with your friends now
Tabs
Saliva - Sex, Drugs, and Rock & Roll
Bonus Track from "Survival of the Sickest"
Drop Db tuning

Good song by Saliva with nice solo. Please rate or comment. 


Intro - Lead play 4x
eb|------------------------------------------------------|
Bb|-------10-------8-------------------------------------|
Gb|-------7--------10-----9-----9---------9--10---9------|
Db|-0--0--0--0--0--0--0--10----10--0--0--10--10--10--10--|
Ab|------------------------------------------------------|
Db|------------------------------------------------------|


Rhythm plays:
    0:13              0:22
eb|-----------------|-----------------------|
Bb|-----------------|-----------------------|
Gb|-----------------|-----------------------|
Db|--3--2--0--------|--5--3-----3--5-----3--|
Ab|--3--2--0--hold--|--5--3-----3--5-----3--|
Db|--3--2--0--------|--5--3-----3--5-----3--|




Verse
    Rhythm (lower volume than lead)
eb|----------------------------------------------|
Bb|----------------------------------------------|
Gb|----------------------------------------------|
Db|----------------------------------------------|
Ab|-0----0--5--0--0--7--5--3----3--3----3--5--3--|
Db|-0----0--0--0--0--7--5--3----3--3----3--5--3--|
  |      pm    pm pm            pm    
  | Lead
eb|----------------------------------------------|
Bb|----------------------------------------------|
Gb|------------------2--2--2-------2----2--2--2--|
Db|------------------0--0--0-------0----0--0--0--|
Ab|-0----0--5--0--0--0--0--0----0--0----0--0--0--|
Db|-0----0--0--0--0--0--0--0----0--0----0--0--0--|
         pm    pm pm            pm   




Prechorus, at 0:55
   Both Guitars
eb|----------------------------|---------------------------|
Bb|----------------------------|---------------------------|
Gb|----------------------------|---------------------------|
Db|---8------------5-----------|--8-------------5----------|
Ab|---8------------5-----------|--8-------------5----------|
Db|---8------------5-----------|--8-------------5----------|

Prechorus Ending
eb|-----------------------|
Bb|-----------------------|
Gb|-----------------------|
Db|--5--3-----3--5-----3--|
Ab|--5--3-----3--5-----3--|
Db|--5--3-----3--5-----3--|




Chorus - Play Verse 3x, then play this ending:
eb|----------------------------|
Bb|----------------------------|
Gb|----------------------------|
Db|--2-------------1-----------|
Ab|--2-------------1-----------|
Db|--2-------------1-----------|


Play Intro again

Play Verse again

Play Prechorus 2x, then Prechorus Ending

Play Chorus & ending 2x



Solo
eb|----------------------------------------------------|
Bb|-10-------------------------------------------------|
Gb|-10-------------------------------------------10----|
Db|-----12p10---10-------------------------10-------12-|
Ab|----------12-----10p8---10~-----8-10/12----12-------|
Db|---------------------12------12---------------------|
  |
  | Rhythm
eb|-----------------------------------------------------|
Bb|-----------------------------------------------------|
Gb|-2-----------2-------------------0--------0----------|
Db|-0-----------3----------------3-----------2----------|
Ab|-0-----------3----------------1-----------3---2h3----|
Db|-0-----------3---------------------------------------|



eb|------------10-12-13-12-10--10---------------------------------|
Bb|-13b15~-------------------13--13-10--10------------------------|
Gb|-----------------------------------13--13-12-10-------12~~--12-|
Db|------------------------------------------------12-10----------|
Ab|---------------------------------------------------------------|
Db|---------------------------------------------------------------|
  |
  | Rhythm
eb|-----------------------------------------------------|
Bb|-----------------------------------------------------|
Gb|---2-----------2----------------0-----------0--------|
Db|-0-----------3----------------3----------5------3----|
Ab|-0-----------3----------------1----------5------3----|
Db|-0-----------3---------------------------5------3----|



eb|-----------------------------10-----10--10----12-----12--12--|
Bb|-12---------15-----15--15----13b15--b15-b15---15b17--b17-b17-|
Gb|-14b16------17b19--b19-b19-----------------------------------|
Db|-------------------------------------------------------------|
Ab|-------------------------------------------------------------|
Db|-------------------------------------------------------------|
  |
  | Rhythm
eb|-----------------------------------------------------|
Bb|-----------------------------------------------------|
Gb|-2-----------2-------------------0--------0----------|
Db|-0-----------3----------------3-----------2----------|
Ab|-0-----------3----------------1-----------3---2h3----|
Db|-0-----------3---------------------------------------|


eb|-13-----13--13----13----------------17----17b18r17~~--17----|
Bb|-16b18--b18-b18---b18---15-13-/15------15----------------15-|
Gb|------------------------------------------------------------|
Db|------------------------------------------------------------|
Ab|------------------------------------------------------------|
Db|------------------------------------------------------------|
  |
  | Rhythm
eb|-----------------------------------------------------|
Bb|-----------------------------------------------------|
Gb|---2-----------2----------------0-----------0--------|
Db|-0-----------3----------------3----------5------3----|
Ab|-0-----------3----------------1----------5------3----|
Db|-0-----------3---------------------------5------3----|


eb|--------------------15-15-15-15--13-------------------------|
Bb|-13h15--15-15----15-15-15-15-15--13--13---------------------|
Gb|--------------14---------------------15b16------------------|
Db|--------------------------------------------14h15p14--------|
Ab|----------------------------------------------------15-17---|
Db|------------------------------------------------------------|
  |
  | Rhythm
eb|-----------------------------------------------------|
Bb|-----------------------------------------------------|
Gb|-2-----------2-------------------0--------0----------|
Db|-0-----------3----------------3-----------2----------|
Ab|-0-----------3----------------1-----------3---2h3----|
Db|-0-----------3---------------------------------------|


eb|------------------------------------------------------------|
Bb|------------------------------------------------------------|
Gb|-----10-12-12b14____12b14____12b14_____r12p10---------------|
Db|-/12-----------------------------------------12p10h12-------|
Ab|------------------------------------------------------------|
Db|------------------------------------------------------------|
 |
  | Rhythm
eb|-----------------------------------------------------|
Bb|-----------------------------------------------------|
Gb|---2-----------2----------------0-----------0--------|
Db|-0-----------3----------------3----------5------3----|
Ab|-0-----------3----------------1----------5------3----|
Db|-0-----------3---------------------------5------3----|


eb|----------------------------------------------|
Bb|----------------------------------------------|
Gb|----------------------------------------------|
Db|-10/12---------0----12-----14----14b15r14-12--|
Ab|---------13-12---12-----12----12--------------|
Db|-10/12----------------------------------------|
  |
  | Rhythm
eb|-----------------------------------------------------|
Bb|-----------------------------------------------------|
Gb|-2-----------2-------------------0--------0----------|
Db|-0-----------3----------------3-----------2----------|
Ab|-0-----------3----------------1-----------3---2h3----|
Db|-0-----------3---------------------------------------|

eb|----------------------------10------------------13-15----15-17p15p13-------|
Bb|-------------10-13-10--10-13--13-10-------13-15-------15------------15-15~-|
Gb|-------/10-12--------13------------12-/14----------------------------------|
Db|-17\-----------------------------------------------------------------------|
Ab|---------------------------------------------------------------------------|
Db|---------------------------------------------------------------------------|
  |
  | Rhythm
eb|-----------------------------------------------------|
Bb|-----------------------------------------------------|
Gb|---2-----------2--------------0----------------------|
Db|-0-----------2--------------3----------------5--5----|
Ab|-0-----------2--------------3----------------5--5----|
Db|-0-----------2--------------3----------------5--5----|


3 beats in this bar  
eb|-------13b15------10-13p10---------------------------|
Bb|-15-13-13b15--------------13p10----------------------|
Gb|-------------------------------13p12p10-12p10-/14~---|
Db|-----------------------------------------------------|
Ab|-----------------------------------------------------|
Db|-----------------------------------------------------|
  |
  | Rhythm
eb|-----------------------------------------------------|
Bb|-----------------------------------------------------|
Gb|-----------------------------------------------------|
Db|--5--5--5--5--5----5--3------3--5-----3-----------0--| hold
Ab|--5--5--5--5--5----5--3------3--5-----3-----------0--| chord
Db|--5--5--5--5--5----5--3------3--5-----3-----------0--| out



Play Intro

Play Chorus

Play Prechorus Ending

Play Intro and end song with:

eb|-----------------------|-----------------------|---------------|------|
Bb|-----------------------|-----------------------|-----3---------|--3---|
Gb|-----------------------|-----------------------|-----2---------|--2---|
Db|--5--3-----3--5-----3--|--5--3-----3--5-----3--|-----0---------|--0---|
Ab|--5--3-----3--5-----3--|--5--3-----3--5-----3--|--0--0---------|--0---|
Db|--5--3-----3--5-----3--|--5--3-----3--5-----3--|--0--0---------|--0---|



Key
| /  slide up
| \  slide down
| h  hammer-on
| p  pull-off
| ~  vibrato
| +  harmonic
| x  Mute note





Comments


Popular Saliva tabs & chords
Beg Bass Tabs
Bleed For Me Bass Tabs
Musta Been Wrong 2 Bass Tabs
Your Disease 2 Bass Tabs
Always Chords
Turn The Lights On Chords
Superstar Ii 1 Tabs
Survival Of The Sickest 1 Tabs
Weight Of The World 2 Tabs
Always Ukulele


Song lyrics



↑ Back to top | Tablatures and chords are parodies/interpretations of the original songs. You may use it for private study, scholarship, research or language learning purposes only
© 2014 AZChords.com Contact us | Privacy policy | DMCA | Add/correct tabs | Request tabs | Top 50 tabs