» » »

Saliva, Res Tin Peices Tabs (ver.1)

Artists:  A B C D E F G H I J K L M N O P Q R S T U V W X Y Z # 

Res Tin Peices Tabs (ver.1)

Saliva Tabs
 Rating:
4/5 (4 votes)
Res Tin Peices lessons Tabs too difficult? Try these video lessons and learn fast
1
                Hi to all my ka-berks in
Sta. Cruz, Balamban, Cebu




Hope you guys like my first tab... 
For your comments, etc, just send me 

Chords:     D         Dm9         Bm           A           G 
E|----2----|-----0-----|-----2-----|-----0-----|-----3-----|
B|----3----|-----3-----|-----3-----|-----2-----|-----3-----|
G|----2----|-----2-----|-----4-----|-----2-----|-----0-----|
D|----0----|-----------|-----4-----|-----2-----|-----0-----|
A|---------|-----------|-----2-----|-----0-----|-----2-----|
E|---------|-----------|-----0-----|-----------|-----3-----|

Intro:
	     D                  Dm9
E|----------2--------|----------0--------|
B|------3-----3---3--|------3-----3---3--|
G|----2---2-----2----|----2---2-----2----|Do this 2x
D|--0----------------|--0----------------|
A|-------------------|-------------------|
E|-------------------|-------------------|

Verse 1:
	     D                  Dm9
E|----------2--------|----------0--------|
B|------3-----3---3--|------3-----3---3--|
G|----2---2-----2----|----2---2-----2----|Do this 7x
D|--0----------------|--0----------------|
A|-------------------|-------------------|
E|-------------------|-------------------|

E|----------2--------|--2--|
B|------3-----3---3--|--3--|
G|----2---2-----2----|--2--|
D|--0----------------|--0--|
A|-------------------|-----|
E|-------------------|-----|

Chorus:
                           Bm
Would you find it in your heart?
                 A
To make this go away...
			  G
And let me restin pieces...

Intro:
	     D                  Dm9
E|----------2--------|----------0--------|
B|------3-----3---3--|------3-----3---3--|
G|----2---2-----2----|----2---2-----2----|Do this 2x
D|--0----------------|--0----------------|
A|-------------------|-------------------|
E|-------------------|-------------------|

Verse 2:
	     D                  Dm9
E|----------2--------|----------0--------|
B|------3-----3---3--|------3-----3---3--|
G|----2---2-----2----|----2---2-----2----|Do this 3x
D|--0----------------|--0----------------|
A|-------------------|-------------------|
E|-------------------|-------------------|
	Look at me my...

E|----------2--------|--2--|
B|------3-----3---3--|--3--|
G|----2---2-----2----|--2--|
D|--0----------------|--0--|
A|-------------------|-----|
E|-------------------|-----|
	    In your...  hand

Chorus: with Distortion
                           Bm
Would you find it in your heart?
                 A
To make this go away...
			  G
And let me restin pieces...

Chorus: with Acoustic
(Do Intro in this part)
                           D
Would you find it in your heart?
                 Dm9
To make this go away...
			  D-Dm9
And let me restin pieces...
                          D
Would you find it in your heart?
                 Dm9
To make this go away...
			  D-Dm9
And let me restin pieces...


Chorus: with Distortion
                           Bm
Would you find it in your heart?
                 A
To make this go away...
			  G
And let me restin pieces...

End with...
				  Bm-A
Would you find it in your heart
                          G
Would you love on restin pieces

Enjoy!!


This tab is 100% right!!!
            
Submit corrections

comments powered by Disqus
↑ Back to top | Saliva Tabs for Res Tin Peices. Lyrics for acoustic guitar and electric guitar. 1 Tablatures and chords are parodies/interpretations of the original songs. You may use it for private study, scholarship, research or language learning purposes only