» » »

Saliva, King Of My World Bass tabs (ver.1)

Artists:  A B C D E F G H I J K L M N O P Q R S T U V W X Y Z # 

King Of My World Bass tabs (ver.1)

Saliva Tabs
 Rating:
4/5 (4 votes)
King Of My World lessons Tabs too difficult? Try these video lessons and learn fast
1
                Saliva - King of my world

bass tab


5-stringed bass
G D A E B

   INTRO
G-|--------------------------------|
D-|--------------------------------|
A-|--------------------------------|
E-|-----------2222-----------------|
B-|-52---52--------52---52----0000-|
                                                                              

   VERSO
G-|-----------|---|-------|
D-|-----------|---|-------|
A-|-----------|---|-------|
E-|-----------|---|-2-0---|
B-|-52---52---|---|-----2-|
                +                                                              

   PRE-CORO
G-|-----------|
D-|-----------|
A-|-0000-2222-|
E-|-----------|
B-|-----------|
                                                                              

   CORO
G-|-------------------------|
D-|-------------------------|
A-|-------------------------|
E-|------0000-2222-0000-2h4-|
B-|-2222--------------------|
                                                                              
  
   BREAK
G-|-----|-----------|---------------|---------------|
D-|-----|-----------|---------------|---------------|
A-|-----|-----------|-000000--------|-000000-222222-|
E-|-----|-----------|---------------|---------------|
B-|-222-|-52---52---|--------222222-|---------------|
                                                                              
Mando salutos a La Alira Pereira de QB 2004 porque se ha ido pues a Sta Cruz a estudiar
medicina alternativa pero luego se vino un dia aqui ps y nos encontramos a lo tara 
en el prado, tara estaba pero ya no voy a quedar traumado.

doky2007 
            
Submit corrections

comments powered by Disqus
↑ Back to top | Saliva Bass for King Of My World. Lyrics for acoustic guitar and electric guitar. 1 Tablatures and chords are parodies/interpretations of the original songs. You may use it for private study, scholarship, research or language learning purposes only