>
 >
Is It You

Is It You Guitar Tabs

Saliva - Is It You chords, tabs, tablatures, lyrics

Guitar lessons | Add/correct | Request | Top 50 tabs Artists:  A B C D E F G H I J K L M N O P Q R S T U V W X Y Z 0-9

Is It You Guitar Tabs – Saliva

CD, Sheet music, Poster

Do you like Is It You? Share with your friends now
Tabs
Saliva - Is it You
Bonus Track from "Blood-Stained Love Story" Album
Tuning - Drop D down 1/2 step

This song is pretty sweet! Please rate this tab or comment. 


Intro/Chorus
  Lead (Pick-up notes on 1st time only)
eb|----------||---------------------------|---------------------------|
Bb|----------||---------------------------|------------------------14-|
Gb|--9/11-14-||-(14)--14--14-14---9/11-14-|-(14)--14--14-14---9/11----|
Db|----------||---------------------------|------------------------11-|
Ab|--7/9--12-||-(12)--12--12-12---7/9--12-|-(12)--12--12-12---7/9-----|
Db|----------||---------------------------|---------------------------|
  |
  |Rhythm
eb|----------||---------------------------|---------------------------|
Bb|----------||---------------------------|---------------------------|
Gb|----------||---------------------------|---------------------------|
Db|----------||--7--7--7--7--7--7--7--7---|--5--5--5--5--5--5--5--5---|
Ab|----------||--7--7--7--7--7--7--7--7---|--5--5--5--5--5--5--5--5---|
Db|----------||--7--7--7--7--7--7--7--7---|--5--5--5--5--5--5--5--5---|

  Lead
eb|-------------------------|-------------------------|
Bb|-(14)-14-14-14-12----14--|-------------------------|
Gb|-------------------------|-14--------------9/11-14-| on Intro repeat,  
Db|-(11)-11-11-11--9----11--|-------------------------| lead part is below
Ab|-------------------------|-12--------------7/9--12-|
Db|-------------------------|-------------------------| for Chorus, repeat this part
  |
  |Rhythm
eb|-------------------------|-------------------------||
Bb|-------------------------|------------------------*||
Gb|-------------------------|-------------------------||
Db|-4--4--4--4--2--2--2--2--|-0--0--0--0--0--0--0--0--|| repeat
Ab|-4--4--4--4--2--2--2--2--|-0--0--0--0--0--0--0--0-*||
Db|-4--4--4--4--2--2--2--2--|-0--0--0--0--0--0--0--0--||


  Lead Part on Repeat (This is the same guitar and an overdub part): 
eb|------12-----------------|------12-----------------|--------------------------|
Bb|---------12--------------|---------12-----------14-|-(14)-14-14-14-17---19----|
Gb|-(14)-------14---9/11-14-|-(14)-------14---9/11----|-----------------------14-|
Db|-------------------------|----------------------11-|-(11)-11-11-11-14---16----|
Ab|-(12)------------7/9--12-|-(12)------------7/9-----|-----------------------12-|
Db|-------------------------|-------------------------|--------------------------|

eb|---------------------------|
Bb|-----------17-17-----------|
Gb|-(14)------------18-16-18--| This occurs during intro only!
Db|-----------13-13-----------|
Ab|-(12)------------16-14-16--|
Db|---------------------------|




Verse Riff (0:24) - each 4 bars is played 2x

Rhythm only
eb|-----------------------------|----------------------------|
Bb|-----------------------------|----------------------------|
Gb|-----------------------------|----------------------------|
Db|---------------6--6--x-x-x-x-|-2--2---x-x-x--4--4-----x-x-| continue 
Ab|-4--4---x-x-x--4--4--x-x-x-x-|-0--0---x-x-x--2--2-----x-x-| in 2 parts:
Db|-4--4---x-x-x----------------|----------------------------|

    Lead
eb|-------5-----------5-----|-------5------------------|
Bb|----7-----7-----7-----7--|----5-----5----8-----/8~--|
Gb|-7-----------7-----------|-6-------------9-----/9~--|
Db|-------------------------|---------------7-----/7~--|
Ab|-------------------------|-------------0---0-0------|
Db|-------------------------|--------------------------|
  |
  |Rhythm - palm mute as indicated by *
eb|-------------------------|--------------------------|
Bb|-------------------------|---------------8-----/8~--|
Gb|-------------------------|---------------9-----/9~--|
Db|-7--7--9--9--7--7--9--9--|---------------7-----/7~--|
Ab|-5--5--5--5--5--5--5--5--|-7--7--7--7--0---0-0------|
Db|-------------------------|-7--7--7--7---------------|
    *  *  *  *  *  *  *  *                *   * * 



Prechorus (0:46) -
   Lead
eb|-------14----------13----|-------14----------12----|-------10----------10----|
Bb|----15----15----14----14-|----14----14----12----12-|----10----10----10----10-|
Gb|-14----------13----------|-14----------13----------|-11----------11----------|
Db|-------------------------|-------------------------|-------------------------|
Ab|-------------------------|-------------------------|-------------------------|
Db|-------------------------|-------------------------|-------------------------|
  |
  |Rhythm (all notes palm muted)
eb|-------------------------|-------------------------|-------------------------|
Bb|-------------------------|-------------------------|-------------------------|
Gb|-------------------------|-------------------------|-------------------------|
Db|-7--7--7--7--6--6--6--6--|-11-11-11-11-9--9--9--9--|-7--7--7--7--7--7--7--7--|
Ab|-5--5--5--5--4--4--4--4--|-9--9--9--9--7--7--7--7--|-5--5--5--5--5--5--5--5--|
Db|-------------------------|-------------------------|-------------------------|

    Lead
eb|-------10----10----------|
Bb|----10----10-------------|
Gb|-11-------------9/11-14--|
Db|-------------------------|
Ab|----------------7/9--12--|
Db|-------------------------|
  |
  |Rhythm - accent each chord
eb|-------------------------|
Bb|-------------------------|
Gb|-------------------------|
Db|-7--7--7--7--7-----------|
Ab|-5--5--5--5--5-----------|
Db|-------------------------|


Play Intro/Chorus


Play Verse Again


Break (2:16) - play 2x
    Lead - play * with palm mute
eb|-------------------|--------------------|
Bb|-8---8---7---------|-6---6---5----------|
Gb|-9---9---8---------|-7---7---6----------|
Db|-------------------|--------------------|
Ab|-------0-------0-0-|-------0--------0-0-|
Db|-------------------|--------------------|
  |       *       * *         *        * *    
  | Rhythm    
eb|-------------------|--------------------|
Bb|-------------------|--------------------|
Gb|-2---2---2---------|-2---2---2----------|
Db|-2---2---2---------|-2---2---2----------|
Ab|-0---0-0-0-----0-0-|-0---0-0-0------0-0-|
Db|-------------------|--------------------|



Solo - with wah
eb|-9---------------------------|-------------------------7------|
Bb|----10-----9b10r9------------|------------------7h10p7---10p7-|
Gb|-------11----------10--------|---------9---11-8---------------|
Db|----------------------11--9--|-7---/11------------------------|
Ab|-----------------------------|--------------------------------|
Db|-----------------------------|--------------------------------|

eb|---------------14b16-b16~----|-16b17r16-14------14--------------------17-|
Bb|-17b19-b19~------------------|-------------17------16--14----------------|
Gb|-----------------------------|----------------------------16--14-16/18__-|
Db|-----------------------------|-------------------------------------------|
Ab|-----------------------------|-------------------------------------------|
Db|-----------------------------|-------------------------------------------|
Rhythm guitar plays "Rhythm Only" part of Verse Riff twice during solo.


Play Prechorus again, but note that:
* Lead holds final 2 solo notes, then continues with prechorus.


Play Chorus 4x to end song, but note that:
  * There are slight differences in Lead part this time, 
      but they are fairly easy to figure out.


KEY:
| /  slide up
| \  slide down
| h  hammer-on
| p  pull-off
| ~  vibrato
| b  bend
| r  release bend
| x  Mute note





Comments


Popular Saliva tabs & chords
Rock And Roll Revolution Bass Tabs
Superstar Ii Bass Tabs
Turn The Tables Bass Tabs
Always Chords
Storm Chords
All Around The World Tabs
Ladies And Gentlemen 4 Tabs
Never Gonna Change Intro Tabs
Two Steps Back Tabs
Weight Of The World 1 Tabs


Song lyrics



↑ Back to top | Tablatures and chords are parodies/interpretations of the original songs. You may use it for private study, scholarship, research or language learning purposes only
© 2014 AZChords.com Contact us | Privacy policy | DMCA | Add/correct tabs | Request tabs | Top 50 tabs