» » »

Saliva, How Could You? Tabs (ver.1)

Artists:  A B C D E F G H I J K L M N O P Q R S T U V W X Y Z # 

How Could You? Tabs (ver.1)

Saliva Tabs
 Rating:
4/5 (4 votes)
How Could You? lessons Tabs too difficult? Try these video lessons and learn fast
                -------------------------------------------------------------------------------
-------------------------------------------------------------------------------

Tuning:Standard

  Intro-
e|---------------------------------------------------------------------------|
B|------8-p-7-----7-p-5-----5--5-p-3-----------------------------------------|
G|------0---------0---------0--0---------5-p-4-------------------------------|
D|---------------------------------------------------------------------------|
A|--7-7-------5-5-------3-3--------------------------------------------------|
E|---------------------------------------------------------------------------|

e|--+12--------+12------|
B|---------+12----------|
G|----------------------|
D|----------------------|
A|----------------------|
E|----------------------|

  Pre-chorus-
e|---------------------------------------------------------------------------|
B|---------------------------------------------------------------------------|
G|---------------------------------------------------------------------------|
D|-10-10-10-10--12-12-12-12-12-12-12-12--------------------------------------|
A|-10-10-10-10--12-12-12-12-12-12-12-12--------------------------------------|
E|--8--8--8--8--10-10-10-10-10-10-10-10--------------------------------------|

  Chorus-
e|------------------------------------------------------------------|--------|
B|------------------------------------------------------------------|--------|
G|--9--9---7--7---5--5---5--5---9-9-9-9--7-7-7-7--5-5-5-5-5-5-5-5---|--------|
D|--9--9---7--7---5--5---5--5---9-9-9-9--7-7-7-7--5-5-5-5-5-5-5-5---|--x2----|
A|--7--7---5--5---3--3---3--3---7-7-7-7--5-5-5-5--3-3-3-3-3-3-3-3---|--------|
E|------------------------------------------------------------------|--------|

  Bridge-
e|---------------------------------------------------------------------------|
B|---------------------------------------------------------------------------|
G|---------------------------9-9-9-9-9-9-9-9---------------------------------|
D|-10-10-10-10-10-10-10-10---9-9-9-9-9-9-9-9--10-10-10-10-10-10-10-10--------|
A|-10-10-10-10-10-10-10-10---7-7-7-7-7-7-7-7--10-10-10-10-10-10-10-10--------|
E|--8--8--8--8--8--8--8--8---------------------8--8--8--8--8--8--8--8--------|

e|---------------------------------------------------------------------------|
B|---------------------------------------------------------------------------|
G|--9-9-9-9-9-9-9-9----------------------------9-9-9-9---7-7-7-7-------------|
D|--9-9-9-9-9-9-9-9--10-10-10-10-10-10-10-10---9-9-9-9---7-7-7-7-------------|
A|--7-7-7-7-7-7-7-7--10-10-10-10-10-10-10-10---7-7-7-7---5-5-5-5-------------|
E|--------------------8--8--8--8--8--8--8--8---------------------------------|

e|---------------------------------|
B|---------------------------------|
G|--5--5--5--5--5--5--5--5--5------|
D|--5--5--5--5--5--5--5--5--5------|
A|--3--3--3--3--3--3--3--3--3------|
E|---------------------------------|



| /  slide up
| \  slide down
| h  hammer-on
| p  pull-off
| ~  vibrato
| +  harmonic
| x  Mute note
            
Submit corrections

comments powered by Disqus
↑ Back to top | Saliva Tabs for How Could You?. Lyrics for acoustic guitar and electric guitar. Tablatures and chords are parodies/interpretations of the original songs. You may use it for private study, scholarship, research or language learning purposes only