» » »

Back Into Your System Bass tabs (ver.1)

Artists:  A B C D E F G H I J K L M N O P Q R S T U V W X Y Z # 

Back Into Your System Bass tabs (ver.1)

Saliva
Rating:
0/5 (0 votes)

Hard to play? Try these video lessons and learn fast.
                Saliva - Back into your system

bass tab


5-stringed bass
G D A E B

   INTRO
G-|--------------------|----------|
D-|----------6---/11---|----------|
A-|-4---/9-------------|-4---/9---|
E-|--------------------|----------|
B-|--------------------|----------|
                                                                              

   A
G-|--------------------------------------------------|
D-|---------------6-----6----------------------------|
A-|--------------------------------------------------|
E-|-------------4---444---44-222-2-22-2/5-555-5-55-5-|
B-|-2222-2-22-2--------------------------------------|
                       *A*                                                    

   B
G-|--------------------------------------------|
D-|--------------------------------------------|
A-|--------------------------------------------|
E-|-------------4-444-44-666-6-66-6-222-2-22-2-|
B-|-2222-2-22-2--------------------------------|
                       *B*                                                    

   VERSO
G-|-------------------------------------|
D-|-------------------------------------|
A-|-------------------------------------|
E-|-------------------44----44----44----|
B-|-22----22----22----------------------|
                                                                              

G-|-------------------------------------|
D-|-------------------------------------|
A-|-------------------------------------|
E-|-22----22----22----55----55----55----|
B-|-------------------------------------|
                                                                              

   CORO
G-|----------|
D-|----------|
A-|----------|
E-|----------|
B-|----------|
   *A* + *B*                                                                   

   MIDDLE
G-|-------------------------------------|
D-|-------------------------------------|
A-|-------------------------------------|
E-|-----0-2----3-0-0h2---0--------0-----|
B-|-2-------22-------------2---22---2---|
                                                                              

G-|----------------*--------------------|---|-----------------|
D-|----------------*--------------------|---|-----------------|
A-|----------------*--------------------|---|-----------------|
E-|-----0-2----3-2-*00-00-00-22-2h3-2-0-|---|-5555555-7777777-|
B-|-2-------22-----*--------------------|---|-----------------|
                            *C*           +                                    

G-|---------------------------------------------|
D-|---------------------------------------------|
A-|---------------------------------------------|
E-|------------444-4-44-4-666-6-66-6-777-7-77-7-|
B-|-222-2-22-2----------------------------------|
                                                                              

   FIN
G-|-------|---------|
D-|-------|---------|
A-|-------|---------|
E-|-------|---------|
B-|-------|-2-------|
    *C* +        

Mando saludos Al Daniel Ayala, mas llamado "Dirty Sanchez" del QB 2004, pero no hacia dirty
sanchez sino que por taras no mas... un casset ps lo tiene donde hemos grabado
chistes y lo reproduciamos en leeeeeento y eso me parecia muy chisteeeee, yaaaaaa.

doky2007                                                              
            
Hard to play? Try these video lessons and learn fast. | Correct




comments powered by Disqus
↑ Back to top | Tablatures and chords are parodies/interpretations of the original songs. You may use it for private study, scholarship, research or language learning purposes only