>
 >
Possessed Thoughts

Possessed Thoughts Guitar Tabs

Saintins Son - Possessed Thoughts chords, tabs, tablatures, lyrics

Guitar lessons | Add/correct | Request | Top 50 tabs Artists:  A B C D E F G H I J K L M N O P Q R S T U V W X Y Z 0-9

Possessed Thoughts Guitar Tabs – Saintins Son

CD, Sheet music, Poster

Do you like Possessed Thoughts? Share with your friends now
TabsTabs v2

Normal Tuning
(use lots of distortion)

                 This tab Is the real tab i use in all the recordings of this song
enjoy!!!!!

guitar 1
(intro)
|-----------------------------------|
|-----------------------------------|
|-----------------------------------|
|-2-(0)-2-2-2-(0)-2-(0)-2-2----5----|
|-2-(0)-2-2-2-(0)-2-(0)-2-2----5----|
|-0-(0)-0-0-0-(0)-0-(0)-0-0----3\14-|


|----------------------------------|
|----------------------------------|
|----------------------------------|
|-2-(0)-2-2-2-(0)-2-(0)-2-2---7-5--|
|-2-(0)-2-2-2-(0)-2-(0)-2-2---7-5--|
|-0-(0)-0-0-0-(0)-0-(0)-0-0---5-3--|

(Main Riff) mute all the notes!!!!

|-----------------------------------|
|-----------------------------------|
|-----------------------------------|
|-2-(0)-2-2-2-(0)-2-(0)-2-2----5----|
|-2-(0)-2-2-2-(0)-2-(0)-2-2----5----|
|-0-(0)-0-0-0-(0)-0-(0)-0-0----3\14-|
   tryin to sleep hear in my bed

|----------------------------------|
|----------------------------------|
|----------------------------------|(add a few mutes if needed)
|-2-(0)-2-2-2-(0)-2-(0)-2-2---7-5--|
|-2-(0)-2-2-2-(0)-2-(0)-2-2---7-5--|
|-0-(0)-0-0-0-(0)-0-(0)-0-0---5-3--|
but i got thoughts of demonds all through my head

|-----------------------------------|
|-----------------------------------|
|-----------------------------------|
|-2-(0)-2-2-2-(0)-2-(0)-2-2----5----|
|-2-(0)-2-2-2-(0)-2-(0)-2-2----5----|
|-0-(0)-0-0-0-(0)-0-(0)-0-0----3\14-|
    i cant take it any more

|----------------------------------|
|----------------------------------|
|----------------------------------|
|-2-(0)-2-2-2-(0)-2-(0)-2-2---7-5--|
|-2-(0)-2-2-2-(0)-2-(0)-2-2---7-5--|
|-0-(0)-0-0-0-(0)-0-(0)-0-0---5-3--|
  i'm just gonna crack right now

|-----------------------------------|
|-----------------------------------|
|-----------------------------------|
|-2-(0)-2-2-2-(0)-2-(0)-2-2----5----|
|-2-(0)-2-2-2-(0)-2-(0)-2-2----5----|
|-0-(0)-0-0-0-(0)-0-(0)-0-0----3\14-|
   if my life wasnt so bad

|----------------------------------|
|----------------------------------|
|----------------------------------|
|-2-(0)-2-2-2-(0)-2-(0)-2-2---7-5--|
|-2-(0)-2-2-2-(0)-2-(0)-2-2---7-5--|
|-0-(0)-0-0-0-(0)-0-(0)-0-0---5-3--|
  i woldnt be scared right now

(play this oppen between verses)
|-----------------------------------|
|-----------------------------------|
|-----------------------------------|
|-2-(0)-2-2-2-(0)-2-(0)-2-2----5----|
|-2-(0)-2-2-2-(0)-2-(0)-2-2----5----|
|-0-(0)-0-0-0-(0)-0-(0)-0-0----3\14-|


|----------------------------------|
|----------------------------------|
|----------------------------------|
|-2-(0)-2-2-2-(0)-2-(0)-2-2---7-5--|
|-2-(0)-2-2-2-(0)-2-(0)-2-2---7-5--|
|-0-(0)-0-0-0-(0)-0-(0)-0-0---5-3--|

guitar 2
(solo 1) play only affter verse 1
|---------------------------|
|---------------------------|
|h7-5p7-5-7b7.5-5b6=========|
|--------------------5b7.5--|
|---------------------------|
|---------------------------|

guitar 2
 (solo 2)play affter 3rd  verse                                    ~               ~~~~~~        ~~~~~   T
|------------------------------------------------------------------------------------------------------------------------|
|------------------------------------------------------------------------------------------------------------------------|
|-7-5-7b8u0.75d-5-7-5b6.5-7tr8-5tr6-7-5-6tr5--------5-6tr5b8-5p7u-5p(<<>)-5-7-5d0.25h7-8-5---8d0.5-7-6d0.5u---[[[]d4.25--|
|--------------------------------------------5pb8-7----------------------------------------6----------------5------------|
|------------------------------------------------------------------------------------------------------------------------|
|------------------------------------------------------------------------------------------------------------------------|

(guitar 1)
|-----------------------------------|
|-----------------------------------|
|-----------------------------------|
|-2-(0)-2-2-2-(0)-2-(0)-2-2----5----|
|-2-(0)-2-2-2-(0)-2-(0)-2-2----5----|
|-0-(0)-0-0-0-(0)-0-(0)-0-0----3\14-|


|----------------------------------|
|----------------------------------|
|----------------------------------|
|-2-(0)-2-2-2-(0)-2-(0)-2-2--------|
|-2-(0)-2-2-2-(0)-2-(0)-2-2--------| (let ring at the end of song)
|-0-(0)-0-0-0-(0)-0-(0)-0-0--------|

(guitar 2)
play this at the end of the song wile other guitar rings out
|-------------------------------------------------|
|-------------------------------------------------|
|----8------------bend sloly with tremlo bar------|
|-------------------------------------------------|
|-------------------------------------------------|
|-------------------------------------------------|

--------------------------------------------------------------------------------
Legend
------

h = hammer-on; p = pull-off; b = bend; r = bend release; / = slide up/down; [5] = nat. harmonic; <5> = 
harmonic; ~ = vibrato; tr = trill; T = tap; TP = trem. picking; PM = palm muting; | = bar; || = double bar; 
= repeat start; *|| = repeat end; *| = double bar (end); : = bar (freetime); d = tremolo bar dive; u = tremolo bar up; = = hold (bend or tremolo bar)
--------------------------------------------------------------------------------





Comments


Popular Saintins Son tabs & chords
Changing Man Tabs
Changing Man Intro Tabs
Depression Tabs
Devils Road Tabs
I Went Downtown Tabs
Life Tabs
Possessed Thoughts 2 Tabs
The Moon Tabs
Walker Tabs
Why Tabs


Song lyrics



↑ Back to top | Tablatures and chords are parodies/interpretations of the original songs. You may use it for private study, scholarship, research or language learning purposes only
© 2014 AZChords.com Contact us | Privacy policy | DMCA | Add/correct tabs | Request tabs | Top 50 tabs