» » »

Saintins Son, Changing Man Tabs (ver.1)

Artists:  A B C D E F G H I J K L M N O P Q R S T U V W X Y Z # 

Changing Man Tabs (ver.1)

Saintins Son Tabs
Rating:
3/5 (1 vote)
Changing Man lessons Tabs too difficult? Try these video lessons and learn fast
                
this is changing man by the band saintins sonand is pritty cool
song ENJOY!!!!!!!!

intro: play 4x


|---------------------------------------|
|---------------------------------------|
|---------------------------------------|
|---2bp0---0-----0------2bp0---0-----0--|
|-0------------2------0------------2----|
|------------0-------------------0------|

verse:repeat throughout verse

|---------------------------------------|
|---------------------------------------|
|---------------------------------------|
|---2bp0---0-----0------2bp0---0-----0--|
|-0------------2------0------------2----|
|------------0-------------------0------|

|---------------------------------------|
|---------------------------------------|
|---------------------------------------|
|---2bp0---0-----0------2bp0---0-----0--|
|-0------------2------0------------2----|
|------------0-------------------0------|

chours: you can play this or use
the chords E & G but the tab sounds better

|----------------------------|
|----------------------------|
|-0-0---5-5-5---0-0---5-5-5--|
|-x-x---0-0-0---x-x---0-0-0--|
|-2-2---5-5-5---2-2---5-5-5--|
|-0-0---3-3-3---0-0---3-3-3--|

|------------------------------|
|------------------------------|
|-0-0---5-5-5---0-0---5-4-5-4--|
|-x-x---0-0-0---x-x---0-x-0-x--|
|-2-2---5-5-5---2-2---5-3-5-3--|
|-0-0---3-3-3---0-0---3-3-3-3--|

|----------------------------|
|----------------------------|
|-0-0---5-5-5---0-0---5-5-5--|
|-x-x---0-0-0---x-x---0-0-0--|
|-2-2---5-5-5---2-2---5-5-5--|
|-0-0---3-3-3---0-0---3-3-3--|

|------------------------------|
|------------------------------|
|-0-0---5-5-5---0-0---5-4-5-4--|
|-x-x---0-0-0---x-x---0-x-0-x--|
|-2-2---5-5-5---2-2---5-3-5-3--|
|-0-0---3-3-3---0-0---3-3-3-3--|

solo:Play this affter the 3rd verse
|----------------------------------------------------------|
|--------3-2b/2---5-5-2------8-------------------------14--|
|------3-------2-2---2-4---------4b-------15b-12------x----|
|----5b---------------------8b-----12b/14-------------x----|
|-^2-3tr2------------------5-----------------------11-x----|
|----------0-----------------------------------------------|


   strum upward in this part       TP
|----------------------------------------|
|-----5---------8b/9---------------5-^5--|
|---6---5fb---------8----5-------4-4-----|
|-6-----------/-9-----5----6-\4----------|
|---------5b/-8--------------------------|
|----------------------------------------|

--------------------------------------------------------------------------------
Legend
------

h = hammer-on; p = pull-off; b = bend; r = bend release; / = slide up/down; [5] = nat. harmonic; <5> = 
harmonic; ~ = vibrato; tr = trill; T = tap; TP = trem. picking; PM = palm muting; | = bar; || = double bar; 
= repeat start; *|| = repeat end; *| = double bar (end); : = bar (freetime); d = tremolo bar dive; u = tremolo bar up; = = hold (bend or tremolo bar)
--------------------------------------------------------------------------------
            

comments powered by Disqus
↑ Back to top | Saintins Son Tabs for Changing Man. Lyrics for acoustic guitar and electric guitar. Tablatures and chords are parodies/interpretations of the original songs. You may use it for private study, scholarship, research or language learning purposes only