» » »

Saigon Kick, What You Say Bass tabs (ver.1)

Artists:  A B C D E F G H I J K L M N O P Q R S T U V W X Y Z # 

What You Say Bass tabs (ver.1)

Saigon Kick Tabs
Rating:
0/5 (0 votes)
What You Say lessons Tabs too difficult? Try these video lessons and learn fast
                                                 

Bass



     H        Q    S E.      W                   H.           S E.    
G||-----------------------|-------------------|----------------------|
D||-----------------------|-------------------|----------------------|
A||-----------------------|--0----------------|--L------------L------|
E||------------------3b---|-------------------|-----------------3b---|


  W                   W                   W                 
-------------------|-------------------|-------------------|
-------------------|-------------------|-------------------|
--0----------------|--L----------------|-------------------|
-------------------|-------------------|--3----------------|


  H.           S E.      H.           S E.      H.           S E.    
----------------------|----------------------|----------------------|
----------------------|----------------------|----------------------|
--5------------L------|--0------------L------|--0------------L------|
-----------------3b---|-----------------3b---|-----------------3b---|


  W                   H.           S E.      W                 
-------------------|----------------------|-------------------|
-------------------|----------------------|-------------------|
--0----------------|--0------------L------|--0----------------|
-------------------|-----------------3b---|-------------------|


  W                   W                   H.           S E.    
-------------------|-------------------|----------------------|
-------------------|-------------------|----------------------|
--L----------------|-------------------|--5------------L------|
-------------------|--3----------------|-----------------3b---|


  W                   H        S E.   Q          Q    E  E    Q    E  E   
-------------------|------------------------|----------------------------|
-------------------|------------------------|----------------------------|
--0----------------|--0--------0------------|----------------------------|
-------------------|-------------3b---3b----|--3g5----5--5--3g5----5--5--|


    Q    E  S S Q    E  E     Q    E  E  Q    E  E   
---------------------------|------------------------|
---------------------------|------------------------|
--4g5----5--5-5------------|------------------------|
----------------3----3--3--|--5----5--5--5----5--5--|


    Q    E  E  S E.   Q          Q    E  E    Q    E  E   
----------------------------|----------------------------|
----------------------------|----------------------------|
--4g5----5--5--5------------|----------------------------|
-----------------3b---3b----|--3g5----5--5--3g5----5--5--|


    Q    E  S S Q    E  E     Q    E  E  Q    E  E   
---------------------------|------------------------|
---------------------------|------------------------|
--4g5----5--5-5------------|------------------------|
----------------3----3--3--|--5----5--5--5----5--5--|


    Q    E  E  S E.   Q        W                   H.           S E.    
----------------------------|-------------------|----------------------|
----------------------------|-------------------|----------------------|
--4g5----5--5--5------------|--0----------------|--L------------L------|
-----------------3b---3b----|-------------------|-----------------3b---|


  W                   W                   W                 
-------------------|-------------------|-------------------|
-------------------|-------------------|-------------------|
--0----------------|--L----------------|-------------------|
-------------------|-------------------|--3----------------|


  H.           S E.      W                   H.           S E.    
----------------------|-------------------|----------------------|
----------------------|-------------------|----------------------|
--5------------L------|--0----------------|--L------------L------|
-----------------3b---|-------------------|-----------------3b---|


  W                   H.           S E.      W                 
-------------------|----------------------|-------------------|
-------------------|----------------------|-------------------|
--0----------------|--L------------L------|--0----------------|
-------------------|-----------------3b---|-------------------|


  W                   W                   H.           S E.    
-------------------|-------------------|----------------------|
-------------------|-------------------|----------------------|
--L----------------|-------------------|--5------------L------|
-------------------|--3----------------|-----------------3b---|


  W                   H.           S E.        Q    E  E    Q    E  E   
-------------------|----------------------|----------------------------|
-------------------|----------------------|----------------------------|
--0----------------|--L------------L------|----------------------------|
-------------------|-----------------3b---|--3g5----5--5--3g5----5--5--|


    Q    E  S S Q    E  E     Q    E  E  Q    E  E   
---------------------------|------------------------|
---------------------------|------------------------|
--4g5----5--5-5------------|------------------------|
----------------3----3--3--|--5----5--5--5----5--5--|


    Q    E  E  S E.   Q          Q    E  E    Q    E  E   
----------------------------|----------------------------|
----------------------------|----------------------------|
--4g5----5--5--5------------|----------------------------|
-----------------3b---3b----|--3g5----5--5--3g5----5--5--|


    Q    E  S S Q    E  E     Q    E  E  Q    E  E   
---------------------------|------------------------|
---------------------------|------------------------|
--4g5----5--5-5------------|------------------------|
----------------3----3--3--|--5----5--5--5----5--5--|


    Q    E  E  S E.   Q        E  S S E  S S E  S S E  S S  
----------------------------|------------------------------|
----------------------------|------------------------------|
--4g5----5--5--5------------|------------------------------|
-----------------3b---3b----|--3--3-3-3--3-3-3--3-3-3--3-3-|


  E  S S E  S S E  S S E  E      E  S S E  S S E  S S E  S S  
------------------------------|------------------------------|
------------------------------|------------------------------|
----------------3--3-3-3------|------------------------------|
--1--1-1-1--1-1-----------1b--|--3--3-3-3--3-3-3--3-3-3--3-3-|


  E  S S E  S S E  S S E  E        Q    E  E    Q    E  E   
------------------------------|----------------------------|
------------------------------|----------------------------|
----------------3--3-3-3------|----------------------------|
--1--1-1-1--1-1-----------1b--|--3g5----5--5--3g5----5--5--|


    Q    E  S S Q    E  E     Q    E  E  Q    E  E   
---------------------------|------------------------|
---------------------------|------------------------|
--4g5----5--5-5------------|------------------------|
----------------3----3--3--|--5----5--5--5----5--5--|


    Q    E  E  S E.   Q          Q    E  E    Q    E  E   
----------------------------|----------------------------|
----------------------------|----------------------------|
--4g5----5--5--5------------|----------------------------|
-----------------3b---3b----|--3g5----5--5--3g5----5--5--|


    Q    E  S S Q    E  E     Q    E  E  Q    E  E   
---------------------------|------------------------|
---------------------------|------------------------|
--4g5----5--5-5------------|------------------------|
----------------3----3--3--|--5----5--5--5----5--5--|


    Q    E  E  S E.   Q        W                   H.           S E.    
----------------------------|-------------------|----------------------|
----------------------------|-------------------|----------------------|
--4g5----5--5--5------------|--0----------------|--L------------L------|
-----------------3b---3b----|-------------------|-----------------3b---|


  W                   W                   W                 
-------------------|-------------------|-------------------|
-------------------|-------------------|-------------------|
--0----------------|--L----------------|-------------------|
-------------------|-------------------|--3----------------|


  H.           S E.      W                   H.           S E.    
----------------------|-------------------|----------------------|
----------------------|-------------------|----------------------|
--5------------L------|--0----------------|--L------------L------|
-----------------3b---|-------------------|-----------------3b---|


  W                   H.           S E.      W                 
-------------------|----------------------|-------------------|
-------------------|----------------------|-------------------|
--0----------------|--L------------L------|--0----------------|
-------------------|-----------------3b---|-------------------|


  W                   W                   H.           S E.    
-------------------|-------------------|----------------------|
-------------------|-------------------|----------------------|
--L----------------|-------------------|--5------------L------|
-------------------|--3----------------|-----------------3b---|


  W                   H.           S E.        Q    E  E    Q    E  E   
-------------------|----------------------|----------------------------|
-------------------|----------------------|----------------------------|
--0----------------|--L------------L------|----------------------------|
-------------------|-----------------3b---|--3g5----5--5--3g5----5--5--|


    Q    E  S S Q    E  E     Q    E  E  Q    E  E   
---------------------------|------------------------|
---------------------------|------------------------|
--4g5----5--5-5------------|------------------------|
----------------3----3--3--|--5----5--5--5----5--5--|


    Q    E  E  S E.   Q          Q    E  E    Q    E  E   
----------------------------|----------------------------|
----------------------------|----------------------------|
--4g5----5--5--5------------|----------------------------|
-----------------3b---3b----|--3g5----5--5--3g5----5--5--|


    Q    E  S S Q    E  E     Q    E  E  Q    E  E   
---------------------------|------------------------|
---------------------------|------------------------|
--4g5----5--5-5------------|------------------------|
----------------3----3--3--|--5----5--5--5----5--5--|


    Q    E  E  S E.   Q        Q    Q    Q    Q       Q    Q    Q    Q     
----------------------------|----------------------|----------------------|
----------------------------|----------------------|----------------------|
--4g5----5--5--5------------|----------------------|--3----3--------------|
-----------------3b---3b----|--5----5----5----5----|------------3----3----|


  Q    Q    Q    Q       Q    Q    Q    Q       Q    Q    Q    Q     
----------------------|----------------------|----------------------|
----------------------|----------------------|----------------------|
----------------------|--3----3--------------|----------------------|
--5----5----5----5----|------------3----3----|--5----5----5----5----|


  Q    Q    Q    Q       Q    Q    Q    Q       Q    Q    Q    Q      
----------------------|----------------------|----------------------||
----------------------|----------------------|----------------------||
--3----3--------------|----------------------|--3----3--------------||
------------3----3----|--5----5----5----5----|------------3----3----||




Duration Legend
---------------
W - whole
H - half
Q - quarter
E - 8th
S - 16th
T - 32nd
X - 64th
. - note dotted
|-n-|  - n-tuplets


Tablature Legend
----------------
L - tied note
x - dead note
g - grace note
(n) - ghost note
> - accentuded note
NH - natural harmonic
AH - artificial harmonic
TH - tapped harmonic
SH - semi harmonic
PH - pitch harmonic
h - hammer on
p - pull off
b - bend
br - bendRelease
pb - preBend
pbr - preBendRelease
brb - bendReleaseBend
\n/ - tremolo bar dip
\n - tremolo bar dive
-/n - tremolo bar Release up
/n\ - tremolo bar inverted dip
/n - tremolo bar return
-\n - tremolo bar Release down
S - shift slide
s - legato slide
/ -  slide into from below or out of upwards
\ -  slide into from above or out of downwards
~ - vibrato
W - wide vibrato
tr - trill
TP - tremolo picking
T - tapping
S - slap
P - pop
< - fade in
^ - brush up
v - brush down
            
Submit corrections

comments powered by Disqus
↑ Back to top | Saigon Kick Bass for What You Say. Lyrics for acoustic guitar and electric guitar. Tablatures and chords are parodies/interpretations of the original songs. You may use it for private study, scholarship, research or language learning purposes only