» » »

Love Of God Bass tabs (ver.1)

Artists:  A B C D E F G H I J K L M N O P Q R S T U V W X Y Z # 

Love Of God Bass tabs (ver.1)

Saigon Kick
Rating:
0/5 (0 votes)

Hard to play? Try these video lessons and learn fast.
                -----------------------------------------------------------------------------
                       
-----------------------------------------------------------------------------

Tuning: Standard

=============================================================================

                                  

Bass



     E  E  E.  E  S E  E  S S    E  E  E.  E  S E  E  S S  
G||---------------------------|---------------------------|
D||---------------------------|---------------------------|
A||---------------------------|---------------------------|
E||--7--7--7---7--7-7--7--7-7-|--0--0--0---0--0-0--0--0-0-|


  E  E  E.  E  S E  E  S S    E  E  E.  E  S E  E  S S  
---------------------------|---------------------------|
---------------------------|---------------------------|
---------------------------|---------------------------|
--5--5--5---5--5-5--5--5-5-|--0--0--0---0--0-0--0--0-0-|


  E  E  E.  E  S E  E  S S    E  E  E.  E  S E  E  S S  
---------------------------|---------------------------|
---------------------------|---------------------------|
---------------------------|---------------------------|
--7--7--7---7--7-7--7--7-7-|--0--0--0---0--0-0--0--0-0-|


  E  E  E.  E  S E  E  S S    E  E  E.  E  S E  E  S S  
---------------------------|---------------------------|
---------------------------|---------------------------|
---------------------------|---------------------------|
--5--5--5---5--5-5--5--5-5-|--0--0--0---0--0-0--0--0-0-|


  E  E  E.  E  S E  E  S S    E  E  E.  E  S E  E  S S  
---------------------------|---------------------------|
---------------------------|---------------------------|
---------------------------|---------------------------|
--7--7--7---7--7-7--7--7-7-|--0--0--0---0--0-0--0--0-0-|


  E  E  E.  E  S E  E  S S    E  E  E.  E  S E  E  S S  
---------------------------|---------------------------|
---------------------------|---------------------------|
---------------------------|---------------------------|
--5--5--5---5--5-5--5--5-5-|--0--0--0---0--0-0--0--0-0-|


  E  E  E.  E  S E  E  S S    E  E  E.  E  S E  E  S S  
---------------------------|---------------------------|
---------------------------|---------------------------|
--2--2--2---2--2-2--2--2-2-|--2--2--2---2--2-2--2--2-2-|
---------------------------|---------------------------|


  E  E  E.  E  S E  E  S S    E  E  E  E  E  E  E  E   
---------------------------|--------------------------|
---------------------------|--------------------------|
--3--3--3---3--3-3--3--3-3-|--0--0--0-----------0--1--|
---------------------------|-----------0--3--4--------|


  E  E  E.  E  S E  E  S S    E  E  E.  E  S E  E  S S  
---------------------------|---------------------------|
---------------------------|---------------------------|
--2--2--2---2--2-2--2--2-2-|--2--2--2---2--2-2--2--2-2-|
---------------------------|---------------------------|


  E  E  E.  E  S E  E  S S    E  E  E  E  E  E  E  E   
---------------------------|--------------------------|
---------------------------|--------------------------|
--3--3--3---3--3-3--3--3-3-|--0--0--0-----------0--1--|
---------------------------|-----------0--3--4--------|


  E  E  E.  E  S E  E  S S    E  E  E.  E  S E  E  S S  
---------------------------|---------------------------|
---------------------------|---------------------------|
--2--2--2---2--2-2--2--2-2-|--2--2--2---2--2-2--2--2-2-|
---------------------------|---------------------------|


  E  E  E.  E  S E  E  S S    E  E  E  E  E  E  E  E   
---------------------------|--------------------------|
---------------------------|--------------------------|
--3--3--3---3--3-3--3--3-3-|--0--0--0-----------0--1--|
---------------------------|-----------0--3--4--------|


  E  E  E.  E  S E  E  S S    E  E  E.  E  S E  E  S S  
---------------------------|---------------------------|
---------------------------|---------------------------|
--2--2--2---2--2-2--2--2-2-|--2--2--2---2--2-2--2--2-2-|
---------------------------|---------------------------|


  E  E  E.  E  S E  E  S S    E  E  E  S E.  E  E  E   
---------------------------|--------------------------|
---------------------------|--------------------------|
--3--3--3---3--3-3--3--3-3-|--0--0--0-----------0--1--|
---------------------------|-----------0-3---4--------|


  E  E  E.  E  S E  E  S S    E  E  E.  E  S E  E  S S  
---------------------------|---------------------------|
---------------------------|---------------------------|
---------------------------|---------------------------|
--7--7--7---7--7-7--7--7-7-|--0--0--0---0--0-0--0--0-0-|


  E  E  E.  E  S E  E  S S    E  E  E.  E  S E  E  S S  
---------------------------|---------------------------|
---------------------------|---------------------------|
---------------------------|---------------------------|
--5--5--5---5--5-5--5--5-5-|--0--0--0---0--0-0--0--0-0-|


  E  E  E.  E  S E  E  S S    E  E  E.  E  S E  E  S S  
---------------------------|---------------------------|
---------------------------|---------------------------|
---------------------------|---------------------------|
--7--7--7---7--7-7--7--7-7-|--0--0--0---0--0-0--0--0-0-|


  E  E  E.  E  S E  E  S S    E  E  E.  E  S E  E  S S  
---------------------------|---------------------------|
---------------------------|---------------------------|
---------------------------|---------------------------|
--5--5--5---5--5-5--5--5-5-|--0--0--0---0--0-0--0--0-0-|


  E  E  E.  E  S E  E  S S    E  E  E.  E  S E  E  S S  
---------------------------|---------------------------|
---------------------------|---------------------------|
--2--2--2---2--2-2--2--2-2-|--2--2--2---2--2-2--2--2-2-|
---------------------------|---------------------------|


  E  E  E.  E  S E  E  S S    E  E  E  E  E  E  E  E   
---------------------------|--------------------------|
---------------------------|--------------------------|
--3--3--3---3--3-3--3--3-3-|--0--0--0-----------0--1--|
---------------------------|-----------0--3--4--------|


  E  E  E.  E  S E  E  S S    E  E  E.  E  S E  E  S S  
---------------------------|---------------------------|
---------------------------|---------------------------|
--2--2--2---2--2-2--2--2-2-|--2--2--2---2--2-2--2--2-2-|
---------------------------|---------------------------|


  E  E  E.  E  S E  E  S S    E  E  E  E  E  E  E  E   
---------------------------|--------------------------|
---------------------------|--------------------------|
--3--3--3---3--3-3--3--3-3-|--0--0--0-----------0--1--|
---------------------------|-----------0--3--4--------|


  E  E  E.  E  S E  E  S S    E  E  E.  E  S E  E  S S  
---------------------------|---------------------------|
---------------------------|---------------------------|
--2--2--2---2--2-2--2--2-2-|--2--2--2---2--2-2--2--2-2-|
---------------------------|---------------------------|


  E  E  E.  E  S E  E  S S    E  E  E  E  E  E  E  E   
---------------------------|--------------------------|
---------------------------|--------------------------|
--3--3--3---3--3-3--3--3-3-|--0--0--0-----------0--1--|
---------------------------|-----------0--3--4--------|


  E  E  E.  E  S E  E  S S    E  E  E.  E  S E  E  S S  
---------------------------|---------------------------|
---------------------------|---------------------------|
--2--2--2---2--2-2--2--2-2-|--2--2--2---2--2-2--2--2-2-|
---------------------------|---------------------------|


  E  E  E.  E  S E  E  S S    E  E  E  E  E  E  E  E   
---------------------------|--------------------------|
---------------------------|--------------------------|
--3--3--3---3--3-3--3--3-3-|--0--0--0-----------0--1--|
---------------------------|-----------0--3--4--------|


  E  E  E.  E  S E  E  S S    E  E  E.  E  S E  E  S S  
---------------------------|---------------------------|
---------------------------|---------------------------|
---------------------------|---------------------------|
--7--7--7---7--7-7--7--7-7-|--0--0--0---0--0-0--0--0-0-|


  E  E  E.  E  S E  E  S S    E  E  E.  E  S E  E  S S  
---------------------------|---------------------------|
---------------------------|---------------------------|
---------------------------|---------------------------|
--5--5--5---5--5-5--5--5-5-|--0--0--0---0--0-0--0--0-0-|


  E  E  E.  E  S E  E  S S    E  E  E.  E  S E  E  S S  
---------------------------|---------------------------|
---------------------------|---------------------------|
---------------------------|---------------------------|
--7--7--7---7--7-7--7--7-7-|--0--0--0---0--0-0--0--0-0-|


  E  E  E.  E  S E  E  S S    E  E  E.  E  S E  E  S S  
---------------------------|---------------------------|
---------------------------|---------------------------|
---------------------------|---------------------------|
--5--5--5---5--5-5--5--5-5-|--0--0--0---0--0-0--0--0-0-|


  E  E  E.  E  S E  E  S S    E  E  E.  E  S E  E  S S  
---------------------------|---------------------------|
---------------------------|---------------------------|
--2--2--2---2--2-2--2--2-2-|--2--2--2---2--2-2--2--2-2-|
---------------------------|---------------------------|


  E  E  E.  E  S E  E  S S    E  E  E.  E  S E  E  S S  
---------------------------|---------------------------|
---------------------------|---------------------------|
--2--2--2---2--2-2--2--2-2-|--2--2--2---2--2-2--2--2-2-|
---------------------------|---------------------------|


  E  E  E.  E  S E  E  S S    E  E  E.  E  S E  E  S S  
---------------------------|---------------------------|
---------------------------|---------------------------|
--2--2--2---2--2-2--2--2-2-|--2--2--2---2--2-2--2--2-2-|
---------------------------|---------------------------|


  E  E  E.  E  S E  E  S S    E  E  E.  E  S E  E  S S  
---------------------------|---------------------------|
---------------------------|---------------------------|
--2--2--2---2--2-2--2--2-2-|--2--2--2---2--2-2--2--2-2-|
---------------------------|---------------------------|


  E  E  E.  E  S E  E  S S    E  E  E.  E  S E  E  S S  
---------------------------|---------------------------|
---------------------------|---------------------------|
--2--2--2---2--2-2--2--2-2-|--2--2--2---2--2-2--2--2-2-|
---------------------------|---------------------------|


  E  E  E.  E  S E  E  S S    E  E  E.  E  S E  E  S S  
---------------------------|---------------------------|
---------------------------|---------------------------|
--2--2--2---2--2-2--2--2-2-|--2--2--2---2--2-2--2--2-2-|
---------------------------|---------------------------|


  E  E  E.  E  S E  E  S S    E  E  E.  E  S E  E  S S  
---------------------------|---------------------------|
---------------------------|---------------------------|
--2--2--2---2--2-2--2--2-2-|--2--2--2---2--2-2--2--2-2-|
---------------------------|---------------------------|


  E  E  E.  E  S E  E  S S    E  E  E.  E  S S S S S S S  
---------------------------|-----------------------------|
---------------------------|-----------------------------|
--2--2--2---2--2-2--2--2-2-|--2--2--2---2--2-2-2-2-2-2-2-|
---------------------------|-----------------------------|


  E  E  E.  E  S E  E  S S    E  E  E.  E  S E  E  S S  
---------------------------|---------------------------|
---------------------------|---------------------------|
---------------------------|---------------------------|
--7--7--7---7--7-7--7--7-7-|--0--0--0---0--0-0--0--0-0-|


  E  E  E.  E  S E  E  S S    E  E  E.  E  S E  E  S S  
---------------------------|---------------------------|
---------------------------|---------------------------|
---------------------------|---------------------------|
--5--5--5---5--5-5--5--5-5-|--0--0--0---0--0-0--0--0-0-|


  E  E  E.  E  S E  E  S S    E  E  E.  E  S E  E  S S  
---------------------------|---------------------------|
---------------------------|---------------------------|
---------------------------|---------------------------|
--7--7--7---7--7-7--7--7-7-|--0--0--0---0--0-0--0--0-0-|


  E  E  E.  E  S E  E  S S    E  E  E.  E  S E  E  S S  
---------------------------|---------------------------|
---------------------------|---------------------------|
---------------------------|---------------------------|
--5--5--5---5--5-5--5--5-5-|--0--0--0---0--0-0--0--0-0-|


  E  E  E.  E  S E  E  S S    E  E  E.  E  S E  E  S S  
---------------------------|---------------------------|
---------------------------|---------------------------|
---------------------------|---------------------------|
--7--7--7---7--7-7--7--7-7-|--0--0--0---0--0-0--0--0-0-|


  E  E  E.  E  S E  E  S S    E  E  E.  E  S E  E  S S  
---------------------------|---------------------------|
---------------------------|---------------------------|
---------------------------|---------------------------|
--5--5--5---5--5-5--5--5-5-|--0--0--0---0--0-0--0--0-0-|


  E  E  E.  E  S E  E  S S    E  E  E.  E  S E  E  S S  
---------------------------|---------------------------|
---------------------------|---------------------------|
---------------------------|---------------------------|
--7--7--7---7--7-7--7--7-7-|--0--0--0---0--0-0--0--0-0-|


  E  E  E.  E  S E  E  S S    E  E  E.  E  S E  E  S S  
---------------------------|---------------------------|
---------------------------|---------------------------|
---------------------------|---------------------------|
--5--5--5---5--5-5--5--5-5-|--0--0--0---0--0-0--0--0-0-|


  E  E  E.  E  S E  E  S S    E  E  E.  E  S E  E  S S  
---------------------------|---------------------------|
---------------------------|---------------------------|
---------------------------|---------------------------|
--7--7--7---7--7-7--7--7-7-|--0--0--0---0--0-0--0--0-0-|


  E  E  E.  E  S E  E  S S    E  E  E.  E  S E  E  S S  
---------------------------|---------------------------|
---------------------------|---------------------------|
---------------------------|---------------------------|
--5--5--5---5--5-5--5--5-5-|--0--0--0---0--0-0--0--0-0-|


  E  E  E.  E  S E  E  S S    E  E  E.  E  S E  E  S S  
---------------------------|---------------------------|
---------------------------|---------------------------|
---------------------------|---------------------------|
--7--7--7---7--7-7--7--7-7-|--0--0--0---0--0-0--0--0-0-|


  E  E  E.  E  S E  E  S S    E  E  E.  E  S E  E  S S   
---------------------------|---------------------------||
---------------------------|---------------------------||
---------------------------|---------------------------||
--5--5--5---5--5-5--5--5-5-|--0--0--0---0--0-0--0--0-0-||




Duration Legend
---------------
W - whole
H - half
Q - quarter
E - 8th
S - 16th
T - 32nd
X - 64th
. - note dotted
|-n-|  - n-tuplets


Tablature Legend
----------------
L - tied note
x - dead note
g - grace note
(n) - ghost note
> - accentuded note
NH - natural harmonic
AH - artificial harmonic
TH - tapped harmonic
SH - semi harmonic
PH - pitch harmonic
h - hammer on
p - pull off
b - bend
br - bendRelease
pb - preBend
pbr - preBendRelease
brb - bendReleaseBend
\n/ - tremolo bar dip
\n - tremolo bar dive
-/n - tremolo bar Release up
/n\ - tremolo bar inverted dip
/n - tremolo bar return
-\n - tremolo bar Release down
S - shift slide
s - legato slide
/ -  slide into from below or out of upwards
\ -  slide into from above or out of downwards
~ - vibrato
W - wide vibrato
tr - trill
TP - tremolo picking
T - tapping
S - slap
P - pop
< - fade in
^ - brush up
v - brush down
            
Hard to play? Try these video lessons and learn fast. | Correct




comments powered by Disqus
↑ Back to top | Tablatures and chords are parodies/interpretations of the original songs. You may use it for private study, scholarship, research or language learning purposes only