» » »

Saigon Kick, God Of 42nd Street Bass tabs (ver.1)

Artists:  A B C D E F G H I J K L M N O P Q R S T U V W X Y Z # 

God Of 42nd Street Bass tabs (ver.1)

Saigon Kick Tabs
Rating:
0/5 (0 votes)
God Of 42nd Street lessons Tabs too difficult? Try these video lessons and learn fast
                -----------------------------------------------------------------------------
                       
-----------------------------------------------------------------------------

Tuning: Standard

=============================================================================

Bass



     Q    Q    E  E  E  E     Q    Q    E  E  E  E     Q    Q    E  E  E  E   
G||------------------------|------------------------|------------------------|
D||------------------------|------------------------|------------------------|
A||-------7----------------|---------------2--3--5--|--3----3----3--2--0-----|
E||--0---------0--0--0--3--|--5----5----5-----------|---------------------3--|


  Q    Q    E  E  Q       Q    Q    E  E  E  E     Q    Q    E  E  E  E   
-----------------------|------------------------|------------------------|
-------5----------4----|------------------------|------------------------|
-----------------------|-------7----------7-----|---------------2--3--5--|
--3---------2--2-------|--0---------0--0-----3--|--5----5----5-----------|


  Q    Q    E  E  E  E     Q    Q    E  E  Q       Q    Q    E  E  E  E   
------------------------|-----------------------|------------------------|
------------------------|-------5----------4----|------------------------|
--3----3----3--2--0-----|-----------------------|-------7----------7-----|
---------------------3--|--3---------2--2-------|--0---------0--0-----3--|


  Q    Q    E  E  E  E     Q    Q    E  E  E  E     Q    Q    E  E  Q     
------------------------|------------------------|-----------------------|
------------------------|------------------------|-------5----------4----|
---------------2--3--5--|--3----3----3--2--0-----|-----------------------|
--5----5----5-----------|---------------------3--|--3---------2--2-------|


  Q    Q    E  E  E  E     Q    Q    E  E  E  E     Q    Q    E  E  E  E   
------------------------|------------------------|------------------------|
------------------------|------------------------|------------------------|
-------7----------7-----|---------------2--3--5--|--3----3----3--2--0-----|
--0---------0--0-----3--|--5----5----5-----------|---------------------3--|


  Q    Q    E  E  Q       E  S E  E  E  E.  E  E     Q    H        Q     
-----------------------|-------------9--7---7--6--|--6----4-------------|
-------5----------4----|--6--6-6--7---------------|---------------------|
-----------------------|--------------------------|---------------------|
--3---------2--2-------|--------------------------|---------------------|


  E  S E  E  E  E.  E  E     Q    H        Q       E  S E  E  E  E.  E  E   
-------------9--7---7--6--|--6------------------|-------------9--7---7--6--|
--6--6-6--7---------------|---------------------|--6--6-6--7---------------|
--------------------------|-------7-------------|--------------------------|
--------------------------|---------------------|--------------------------|


  Q    H        Q       H        Q    Q       Q    H.            
--6----4-------------|---------------------|--------------------|
---------------------|---------------------|--------------------|
---------------------|--3--------2---------|--------------------|
---------------------|----------------3----|--0----0------------|


  Q    Q    E  E  E  E     Q    Q    E  E  E  E     Q    Q    E  E  E  E   
------------------------|------------------------|------------------------|
------------------------|------------------------|------------------------|
-------7----------7-----|---------------2--3--5--|--3----3----3--2--0-----|
--0---------0--0-----3--|--5----5----5-----------|---------------------3--|


  Q    Q    E  E  Q       Q    Q    E  E  E  E     Q    Q    E  E  E  E   
-----------------------|------------------------|------------------------|
-------5----------4----|------------------------|------------------------|
-----------------------|-------7----------7-----|---------------2--3--5--|
--3---------2--2-------|--0---------0--0-----3--|--5----5----5-----------|


  Q    Q    E  E  E  E     Q    Q    E  E  Q       Q    Q    E  E  E  E   
------------------------|-----------------------|------------------------|
------------------------|-------5----------4----|------------------------|
--3----3----3--2--0-----|-----------------------|-------7----------7-----|
---------------------3--|--3---------2--2-------|--0---------0--0-----3--|


  Q    Q    E  E  E  E     Q    Q    E  E  E  E     Q    Q    E  E  Q     
------------------------|------------------------|-----------------------|
------------------------|------------------------|-------5----------4----|
---------------2--3--5--|--3----3----3--2--0-----|-----------------------|
--5----5----5-----------|---------------------3--|--3---------2--2-------|


  E  S E  E  E  E.  E  E     Q    H        Q       E  S E  E  E  E.  E  E   
-------------9--7---7--6--|--6----4-------------|-------------9--7---7--6--|
--6--6-6--7---------------|---------------------|--6--6-6--7---------------|
--------------------------|---------------------|--------------------------|
--------------------------|---------------------|--------------------------|


  Q    H        Q       E  S E  E  E  E.  E  E     Q    H        Q     
--6------------------|-------------9--7---7--6--|--6----4-------------|
---------------------|--6--6-6--7---------------|---------------------|
-------7-------------|--------------------------|---------------------|
---------------------|--------------------------|---------------------|


  Q    E.  S E  E  Q       Q    Q    E  E  Q       Q    E.  S E  E  Q     
------------------------|-----------------------|-------5-----------4----|
-------5-----------4----|-----------------------|------------------------|
------------------------|-------7----------7----|--3--------3-2--2-------|
--3--------3-2--2-------|--0---------0--0-------|------------------------|


  Q    Q    E  E  E  E     Q    E.  S E  E  Q       Q    Q    E  E  Q     
------------------------|------------------------|-----------------------|
-------7----7--------7--|-------5-----------4----|-----------------------|
--0------------0--0-----|------------------------|-------7----------7----|
------------------------|--3--------3-2--2-------|--0---------0--0-------|


  Q    E.  S E  E  Q       Q    Q    E  E  E  E     Q    Q    E  E  E  E   
-------5-----------4----|------------------------|------------------------|
------------------------|-------7----------------|------------------------|
--3--------3-2--2-------|--0---------0--0--0--0--|-------7----------7-----|
------------------------|------------------------|--0---------0--0-----3--|


  Q    Q    E  E  E  E     Q    Q    E  E  E  E     Q    Q    E  E  Q     
------------------------|------------------------|-----------------------|
------------------------|------------------------|-------5----------4----|
---------------2--3--5--|--3----3----3--2--0-----|-----------------------|
--5----5----5-----------|---------------------3--|--3---------2--2-------|


  Q    Q    E  E  E  E     Q    Q    E  E  E  E     Q    Q    E  E  E  E   
------------------------|------------------------|------------------------|
------------------------|------------------------|------------------------|
-------7----------7-----|---------------2--3--5--|--3----3----3--2--0-----|
--0---------0--0-----3--|--5----5----5-----------|---------------------3--|


  Q    Q    E  E  Q       E  S E  E  E  E.  E  E     Q    H        Q     
-----------------------|-------------9--7---7--6--|--6----4-------------|
-------5----------4----|--6--6-6--7---------------|---------------------|
-----------------------|--------------------------|---------------------|
--3---------2--2-------|--------------------------|---------------------|


  E  S E  E  E  E.  E  E     Q    H        Q       E  S E  E  E  E.  E  E   
-------------9--7---7--6--|--6------------------|-------------9--7---7--6--|
--6--6-6--7---------------|---------------------|--6--6-6--7---------------|
--------------------------|-------7-------------|--------------------------|
--------------------------|---------------------|--------------------------|


  Q    H        Q       H        Q    Q       Q    H.            
--6----4-------------|---------------------|--------------------|
---------------------|---------------------|--------------------|
---------------------|--3--------2---------|--------------------|
---------------------|----------------3----|--0----0------------|


  Q    Q    E  E  E  E     Q    Q    E  E  E  E     Q    Q    E  E  E  E   
------------------------|------------------------|------------------------|
------------------------|------------------------|------------------------|
-------7----------7-----|---------------2--3--5--|--3----3----3--2--0-----|
--0---------0--0-----3--|--5----5----5-----------|---------------------3--|


  Q    Q    E  E  Q       Q    Q    E  E  E  E     Q    Q    E  E  E  E   
-----------------------|------------------------|------------------------|
-------5----------4----|------------------------|------------------------|
-----------------------|-------7----------7-----|---------------2--3--5--|
--3---------2--2-------|--0---------0--0-----3--|--5----5----5-----------|


  Q    Q    E  E  E  E     Q    Q    E  E  Q       Q    Q    E  E  E  E   
------------------------|-----------------------|------------------------|
------------------------|-------5----------4----|------------------------|
--3----3----3--2--0-----|-----------------------|-------7----------7-----|
---------------------3--|--3---------2--2-------|--0---------0--0-----3--|


  Q    Q    E  E  E  E     Q    Q    E  E  E  E     Q    Q    E  E  Q     
------------------------|------------------------|-----------------------|
------------------------|------------------------|-------5----------4----|
---------------2--3--5--|--3----3----3--2--0-----|-----------------------|
--5----5----5-----------|---------------------3--|--3---------2--2-------|


  E  S E  E  E  E.  E  E     Q    H        Q       E  S E  E  E  E.  E  E   
-------------9--7---7--6--|--6----4-------------|-------------9--7---7--6--|
--6--6-6--7---------------|---------------------|--6--6-6--7---------------|
--------------------------|---------------------|--------------------------|
--------------------------|---------------------|--------------------------|


  Q    H        Q       E  S E  E  E  E.  E  E     Q    H        Q     
--6------------------|-------------9--7---7--6--|--6----4-------------|
---------------------|--6--6-6--7---------------|---------------------|
-------7-------------|--------------------------|---------------------|
---------------------|--------------------------|---------------------|


  H        Q    Q       W                   H.           Q      
---------------------|-------------------|--------------------||
---------------------|-------------------|--------------------||
--3--------2---------|-------------------|--------------------||
----------------3----|--0----------------|--0-----------------||




Duration Legend
---------------
W - whole
H - half
Q - quarter
E - 8th
S - 16th
T - 32nd
X - 64th
. - note dotted
|-n-|  - n-tuplets


Tablature Legend
----------------
L - tied note
x - dead note
g - grace note
(n) - ghost note
> - accentuded note
NH - natural harmonic
AH - artificial harmonic
TH - tapped harmonic
SH - semi harmonic
PH - pitch harmonic
h - hammer on
p - pull off
b - bend
br - bendRelease
pb - preBend
pbr - preBendRelease
brb - bendReleaseBend
\n/ - tremolo bar dip
\n - tremolo bar dive
-/n - tremolo bar Release up
/n\ - tremolo bar inverted dip
/n - tremolo bar return
-\n - tremolo bar Release down
S - shift slide
s - legato slide
/ -  slide into from below or out of upwards
\ -  slide into from above or out of downwards
~ - vibrato
W - wide vibrato
tr - trill
TP - tremolo picking
T - tapping
S - slap
P - pop
< - fade in
^ - brush up
v - brush down
            

comments powered by Disqus
↑ Back to top | Saigon Kick Bass for God Of 42nd Street. Lyrics for acoustic guitar and electric guitar. Tablatures and chords are parodies/interpretations of the original songs. You may use it for private study, scholarship, research or language learning purposes only