>
 >
Cruelty

Cruelty Bass Tabs

Saigon Kick - Cruelty chords, tabs, tablatures, lyrics

Guitar lessons | Add/correct | Request | Top 50 tabs Artists:  A B C D E F G H I J K L M N O P Q R S T U V W X Y Z 0-9

Cruelty Bass Tabs – Saigon Kick

CD, Sheet music, Poster

Do you like Cruelty? Share with your friends now
Bass TabsTabs
-----------------------------------------------------------------------------
                       
-----------------------------------------------------------------------------

Tuning: Standard

=============================================================================

Bass



     Q    E  E  Q       Q    E  E  Q       Q    E  E  Q       Q    E  E  Q     
G||------------------|------------------|------------------|------------------|
D||-------7--7--7----|-------7--7--7----|-------7--7--7----|-------7--7--7----|
A||--0---------------|--0---------------|--0---------------|--0---------------|
E||------------------|------------------|------------------|------------------|


  Q    E  E  Q       Q    E  E  Q       Q    E  E  Q       Q    E  E  Q     
------------------|------------------|------------------|------------------|
-------7--7--7----|-------7--7--7----|-------7--7--7----|-------7--7--7----|
--0---------------|--0---------------|--0---------------|--0---------------|
------------------|------------------|------------------|------------------|


  Q    E  E  Q       Q    E  E  Q       Q    E  E  Q       Q    E  E  Q     
------------------|------------------|------------------|------------------|
-------7--7--7----|-------7--7--7----|-------7--7--7----|-------7--7--7----|
--0---------------|--0---------------|--0---------------|--0---------------|
------------------|------------------|------------------|------------------|


  Q    E  E  Q       Q    E  E  Q       Q    E  E  Q       Q    E  E  Q     
------------------|------------------|------------------|------------------|
-------7--7--7----|-------7--7--7----|-------7--7--7----|-------7--7--7----|
--0---------------|--0---------------|--0---------------|--0---------------|
------------------|------------------|------------------|------------------|


  Q    E  E  Q       Q    E  E  Q       Q    E  E  Q       Q    E  E  Q     
------------------|------------------|------------------|------------------|
-------7--7--7----|-------7--7--7----|-------7--7--7----|-------7--7--7----|
--0---------------|--0---------------|--0---------------|--0---------------|
------------------|------------------|------------------|------------------|


  Q    E  E  Q       Q    E  E  Q       Q    E  E  Q       Q    E  E  Q     
------------------|------------------|------------------|------------------|
-------7--7--7----|-------7--7--7----|-------7--7--7----|-------7--7--7----|
--0---------------|--0---------------|--0---------------|--0---------------|
------------------|------------------|------------------|------------------|


  Q    E  E  Q       Q    E  E  Q       Q    E  E  Q       Q    E  E  Q     
------------------|------------------|------------------|------------------|
-------7--7--7----|-------7--7--7----|-------7--7--7----|-------7--7--7----|
--0---------------|--0---------------|--0---------------|--0---------------|
------------------|------------------|------------------|------------------|


  Q    E  E  Q       Q    E  E  Q       Q    E  E  Q       Q    E  E  Q     
------------------|------------------|------------------|------------------|
-------7--7--7----|-------7--7--7----|-------7--7--7----|-------7--7--7----|
--0---------------|--0---------------|--0---------------|--0---------------|
------------------|------------------|------------------|------------------|


  Q    E  E  Q       Q    E  E  Q       Q    E  E  Q       Q    E  E  Q     
------------------|------------------|------------------|------------------|
-------7--7--7----|-------7--7--7----|-------7--7--7----|-------7--7--7----|
--0---------------|--0---------------|--0---------------|--0---------------|
------------------|------------------|------------------|------------------|


  Q    E  E  Q       Q    E  E  Q       Q    E  E  Q       Q    E  E  Q     
------------------|------------------|------------------|------------------|
-------7--7--7----|-------5--5--5----|-------5--5--5----|-------4--4--4----|
--0---------------|------------------|------------------|------------------|
------------------|--3---------------|--3---------------|--2---------------|


  Q    E  E  Q       Q    E  E  Q       Q    E  E  Q       Q    E  E  Q     
------------------|------------------|------------------|------------------|
-------4--4--4----|-------7--7--7----|-------7--7--7----|-------7--7--7----|
------------------|--0---------------|--0---------------|--0---------------|
--2---------------|------------------|------------------|------------------|


  Q    E  E  Q       Q    E  E  Q       Q    E  E  Q       Q    E  E  Q     
------------------|------------------|------------------|------------------|
-------7--7--7----|-------7--7--7----|-------7--7--7----|-------7--7--7----|
--0---------------|--0---------------|--0---------------|--0---------------|
------------------|------------------|------------------|------------------|


  Q    E  E  Q       Q    E  E  Q       Q    E  E  Q       Q    E  E  Q     
------------------|------------------|------------------|------------------|
-------7--7--7----|-------7--7--7----|-------7--7--7----|-------7--7--7----|
--0---------------|--0---------------|--0---------------|--0---------------|
------------------|------------------|------------------|------------------|


  Q    E  E  Q       Q    E  E  Q       Q    E  E  Q       Q    E  E  Q     
------------------|------------------|------------------|------------------|
-------7--7--7----|-------5--5--5----|-------5--5--5----|-------4--4--4----|
--0---------------|------------------|------------------|------------------|
------------------|--3---------------|--3---------------|--2---------------|


  Q    E  E  Q       Q    E  E  Q       Q    E  E  Q       Q    E  E  Q     
------------------|------------------|------------------|------------------|
-------4--4--4----|-------7--7--7----|-------7--7--7----|-------7--7--7----|
------------------|--0---------------|--0---------------|--0---------------|
--2---------------|------------------|------------------|------------------|


  Q    E  E  Q       Q    E  E  Q       Q    E  E  Q       Q    E  E  Q     
------------------|------------------|------------------|------------------|
-------7--7--7----|-------7--7--7----|-------7--7--7----|-------7--7--7----|
--0---------------|--0---------------|--0---------------|--0---------------|
------------------|------------------|------------------|------------------|


  Q    E  E  Q       Q    E  E  Q       Q    E  E  Q       Q    E  E  Q     
------------------|------------------|------------------|------------------|
-------7--7--7----|-------7--7--7----|-------7--7--7----|-------7--7--7----|
--0---------------|--0---------------|--0---------------|--0---------------|
------------------|------------------|------------------|------------------|


  Q    E  E  Q       Q    E  E  Q       Q    E  E  Q       Q    E  E  Q     
------------------|------------------|------------------|------------------|
-------7--7--7----|-------5--5--5----|-------5--5--5----|-------4--4--4----|
--0---------------|------------------|------------------|------------------|
------------------|--3---------------|--3---------------|--2---------------|


  Q    E  E  Q       Q    E  E  Q       Q    E  E  Q       Q    E  E  Q     
------------------|------------------|------------------|------------------|
-------4--4--4----|-------7--7--7----|-------7--7--7----|-------7--7--7----|
------------------|--0---------------|--0---------------|--0---------------|
--2---------------|------------------|------------------|------------------|


  Q    E  E  Q       Q    E  E  Q       Q    E  E  Q       Q    E  E  Q     
------------------|------------------|------------------|------------------|
-------7--7--7----|-------7--7--7----|-------7--7--7----|-------7--7--7----|
--0---------------|--0---------------|--0---------------|--0---------------|
------------------|------------------|------------------|------------------|


  Q    E  E  Q       Q    E  E  Q       Q    E  E  Q       Q    E  E  Q     
------------------|------------------|------------------|------------------|
-------7--7--7----|-------7--7--7----|-------7--7--7----|-------7--7--7----|
--0---------------|--0---------------|--0---------------|--0---------------|
------------------|------------------|------------------|------------------|


  Q    E  E  Q       Q    E  E  Q       Q    E  E  Q       Q    E  E  Q     
------------------|------------------|------------------|------------------|
-------7--7--7----|-------5--5--5----|-------5--5--5----|-------4--4--4----|
--0---------------|------------------|------------------|------------------|
------------------|--3---------------|--3---------------|--2---------------|


  Q    E  E  Q       Q    E  E  Q       Q    E  E  Q       Q    E  E  Q     
------------------|------------------|------------------|------------------|
-------4--4--4----|-------7--7--7----|-------7--7--7----|-------7--7--7----|
------------------|--0---------------|--0---------------|--0---------------|
--2---------------|------------------|------------------|------------------|


  Q    E  E  Q       Q    E  E  Q       Q    E  E  Q       Q    E  E  Q     
------------------|------------------|------------------|------------------|
-------7--7--7----|-------5--5--5----|-------5--5--5----|-------4--4--4----|
--0---------------|------------------|------------------|------------------|
------------------|--3---------------|--3---------------|--2---------------|


  Q    E  E  Q       H.              H.              H.             
------------------|---------------|---------------|---------------||
-------4--4--4----|---------------|---------------|---------------||
------------------|--0------------|--L------------|--L------------||
--2---------------|---------------|---------------|---------------||




Duration Legend
---------------
W - whole
H - half
Q - quarter
E - 8th
S - 16th
T - 32nd
X - 64th
. - note dotted
|-n-|  - n-tuplets


Tablature Legend
----------------
L - tied note
x - dead note
g - grace note
(n) - ghost note
> - accentuded note
NH - natural harmonic
AH - artificial harmonic
TH - tapped harmonic
SH - semi harmonic
PH - pitch harmonic
h - hammer on
p - pull off
b - bend
br - bendRelease
pb - preBend
pbr - preBendRelease
brb - bendReleaseBend
\n/ - tremolo bar dip
\n - tremolo bar dive
-/n - tremolo bar Release up
/n\ - tremolo bar inverted dip
/n - tremolo bar return
-\n - tremolo bar Release down
S - shift slide
s - legato slide
/ -  slide into from below or out of upwards
\ -  slide into from above or out of downwards
~ - vibrato
W - wide vibrato
tr - trill
TP - tremolo picking
T - tapping
S - slap
P - pop
< - fade in
^ - brush up
v - brush down





Comments


Popular Saigon Kick tabs & chords
All Alright Bass Tabs
Chanel Bass Tabs
Suzy Bass Tabs
All I Want Chords
Body Bags Tabs
Chanel Tabs
Love Of God Tabs
My Life Tabs
Sergeant Steve Tabs
The Lizard Tabs


Song lyrics



↑ Back to top | Tablatures and chords are parodies/interpretations of the original songs. You may use it for private study, scholarship, research or language learning purposes only
© 2014 AZChords.com Contact us | Privacy policy | DMCA | Add/correct tabs | Request tabs | Top 50 tabs