» » »

Saigon Kick, Come Take Me Now Bass tabs (ver.1)

Artists:  A B C D E F G H I J K L M N O P Q R S T U V W X Y Z # 

Come Take Me Now Bass tabs (ver.1)

Saigon Kick Tabs
 Rating:
4/5 (4 votes)
Come Take Me Now lessons Tabs too difficult? Try these video lessons and learn fast
1
                -----------------------------------------------------------------------------
		      Cruelty - Saigon Kick (BASS)
                       
-----------------------------------------------------------------------------

Tuning: Standard

=============================================================================

                             
Bass


G||-------|-------|-------|-------|-------|-------|-------|-------|-----------|
D||-------|-------|-------|-------|-------|-------|-------|-------|-----------|
A||-------|-------|-------|-------|-------|-------|-------|-------|-----------|
E||-------|-------|-------|-------|-------|-------|-------|-------|-----------|


                                      H        H           H        H         
-----------|-----------|-----------|--------------------|--------------------|
-----------|-----------|-----------|--------------------|--------------------|
-----------|-----------|-----------|--------------------|--------------------|
-----------|-----------|-----------|--7--------6--------|--5--------4--------|


  Q    E  S Q.     S E      H.           S E.     Q.     S S H         
-------------------------|---------------------|----------------------|
----------5-5------L-----|---------------------|----------------------|
-------------------------|---------------2-4---|--5--------5-5--------|
--3----3-------------3S--|--7------------------|----------------------|


  Q.     S S Q    S E.     Q.     S S Q    E  E     Q.     S S Q    E   E   
------------------------|------------------------|-------------------------|
------------------------|------------------------|-------------------------|
--0--------0-0----0-2---|--3--------3-3----3--2--|---------------------10--|
------------------------|------------------------|--3--------3-3----3------|


  Q.     S S H           Q.     S S Q    S E.     Q.     S S Q    E  E   
----------------------|------------------------|------------------------|
----------------------|------------------------|------------------------|
--5--------5-5--------|--0--------0-0----0-2---|--3--------3-3----3--2--|
----------------------|------------------------|------------------------|


  H.           Q       H        H           H        H         
--------------------|--------------------|--------------------|
--------------------|--------------------|--------------------|
--------------------|--------------------|--------------------|
--3-----------------|--7--------6--------|--5--------4--------|


  Q    E  S H        S     H.           Q       H        H         
-----------------------|---------------------|--------------------|
----------5-5----------|---------------------|--------------------|
-----------------------|---------------------|--------------------|
--3----3---------------|--/7-----------------|--7--------6--------|


  H        H           Q    E  S H        S     H.           S E.   
--------------------|-----------------------|----------------------|
--------------------|----------5-5----------|----------------------|
--------------------|-----------------------|----------------2-4---|
--5--------4--------|--3----3---------------|--/7------------------|


  Q.     S S H           Q.     S S Q    S E.     Q.     S S Q    E  E   
----------------------|------------------------|------------------------|
----------------------|------------------------|------------------------|
--5--------5-5--------|--0--------0-0----0-2---|--3--------3-3----3--2--|
----------------------|------------------------|------------------------|


  Q.     S S Q    E   E     Q.     S S H           Q.     S S Q    S E.   
-------------------------|----------------------|------------------------|
-------------------------|----------------------|------------------------|
---------------------10--|--5--------5-5--------|--0--------0-0----0-2---|
--3--------3-3----3------|----------------------|------------------------|


  Q.     S S Q    E  E     H.           Q       Q.     S S E  Q.      
------------------------|--------------------|-----------------------|
------------------------|--------------------|-----------------------|
--3--------3-3----3--2--|--------------------|-----------------------|
------------------------|--3-----------------|--7------L-7-6--6------|


  Q.     S S E  Q.        Q    E  S Q.     S E      H.           Q     
-----------------------|-------------------------|--------------------|
-----------------------|----------5-5------L-----|--------------------|
-----------------------|-------------------------|--------------------|
--5------L-5-4--4------|--3----3-------------3S--|--7-----------------|


  Q.     S S E  Q.        Q.     S S E  Q.        Q    E  S Q.     S E    
-----------------------|-----------------------|-------------------------|
-----------------------|-----------------------|----------5-5------L-----|
-----------------------|-----------------------|-------------------------|
--7------L-7-6--6------|--5------L-5-4--4------|--3----3-------------3S--|


  H.           S E.     Q.     S S H           Q.     S S Q    S E.   
---------------------|----------------------|------------------------|
---------------------|----------------------|------------------------|
---------------2-4---|--5--------5-5--------|--0--------0-0----0-2---|
--7------------------|----------------------|------------------------|


  Q.     S S Q    E  E     Q.     S S Q    E   E     Q.     S S H         
------------------------|-------------------------|----------------------|
------------------------|-------------------------|----------------------|
--3--------3-3----3--2--|---------------------10--|--5--------5-5--------|
------------------------|--3--------3-3----3------|----------------------|


  Q.     S S Q    S E.     Q.     S S Q    E  E     H        Q    Q     
------------------------|------------------------|---------------------|
------------------------|------------------------|---------------------|
--0--------0-0----0-2---|--3--------3-3----3--2--|---------------------|
------------------------|------------------------|--3--------3----3----|


  Q.     S S H           Q.     S S Q    S E.     Q.     S S Q    E  E   
----------------------|------------------------|------------------------|
----------------------|------------------------|------------------------|
--6--------6-6--------|--1--------1-1----1-3---|--4--------4-4----4--3--|
----------------------|------------------------|------------------------|


  Q.     S S Q    E  E     Q.     S S H           Q.     S S Q    S E.   
------------------------|----------------------|------------------------|
------------------------|----------------------|------------------------|
------------------------|--6--------6-6--------|--1--------1-1----1-3---|
--4--------4-4----4--4--|----------------------|------------------------|


  Q.     S S Q    E  E     Q.     S S Q    E  E     Q.     S S H         
------------------------|------------------------|----------------------|
------------------------|------------------------|----------------------|
--4--------4-4----4--3--|------------------------|--6--------6-6--------|
------------------------|--4--------4-4----4--4--|----------------------|


  Q.     S S Q    S E.    
------------------------||
------------------------||
--1--------1-1----1-3---||
------------------------||




Duration Legend
---------------
W - whole
H - half
Q - quarter
E - 8th
S - 16th
T - 32nd
X - 64th
. - note dotted
|-n-|  - n-tuplets


Tablature Legend
----------------
L - tied note
x - dead note
g - grace note
(n) - ghost note
> - accentuded note
NH - natural harmonic
AH - artificial harmonic
TH - tapped harmonic
SH - semi harmonic
PH - pitch harmonic
h - hammer on
p - pull off
b - bend
br - bendRelease
pb - preBend
pbr - preBendRelease
brb - bendReleaseBend
\n/ - tremolo bar dip
\n - tremolo bar dive
-/n - tremolo bar Release up
/n\ - tremolo bar inverted dip
/n - tremolo bar return
-\n - tremolo bar Release down
S - shift slide
s - legato slide
/ -  slide into from below or out of upwards
\ -  slide into from above or out of downwards
~ - vibrato
W - wide vibrato
tr - trill
TP - tremolo picking
T - tapping
S - slap
P - pop
< - fade in
^ - brush up
v - brush down
            
Submit corrections

comments powered by Disqus
↑ Back to top | Saigon Kick Bass for Come Take Me Now. Lyrics for acoustic guitar and electric guitar. 1 Tablatures and chords are parodies/interpretations of the original songs. You may use it for private study, scholarship, research or language learning purposes only