» » »

Saigon Kick, Chanel Bass tabs (ver.1)

Artists:  A B C D E F G H I J K L M N O P Q R S T U V W X Y Z # 

Chanel Bass tabs (ver.1)

Saigon Kick Tabs
Rating:
0/5 (0 votes)
Chanel lessons Tabs too difficult? Try these video lessons and learn fast
                -----------------------------------------------------------------------------
                       
-----------------------------------------------------------------------------

Tuning: Standard

=============================================================================

Bass



                             Q    Q    Q    Q       Q    Q    Q    Q     
G||-------|-------|-------|----------------------|-------7----5---------|
D||-------|-------|-------|----------------------|-----------------7----|
A||-------|-------|-------|-------2----3----4----|--5-------------------|
E||-------|-------|-------|--5-------------------|----------------------|


  Q    Q    Q    Q       Q    Q    Q    Q       Q    Q    Q    Q     
----------------------|----------------------|----------------------|
--9----7----5----3----|--2-------------------|----------------------|
----------------------|-------5----3----2----|-------3----2----3----|
----------------------|----------------------|--5-------------------|


  Q    Q    Q    Q       Q    Q    Q    Q       Q    Q    Q    Q     
----------------------|----------------------|----------------------|
----------------------|----------------------|----------------------|
-------5----7---------|-------7----5----3----|----------------------|
--4--------------4----|--5-------------------|--5----0----2----4----|


  Q    Q    Q    Q       Q    Q    Q    Q       Q    Q    Q    Q     
----------------------|-------7----5---------|----------------------|
----------------------|-----------------7----|--9----7----5----3----|
-------2----3----4----|--5-------------------|----------------------|
--5-------------------|----------------------|----------------------|


  Q    Q    Q    Q       Q    Q    Q    Q       Q    Q    Q    Q     
----------------------|----------------------|----------------------|
--2-------------------|----------------------|----------------------|
-------5----3----2----|-------3----2----3----|-------5----7---------|
----------------------|--5-------------------|--4--------------4----|


  Q    Q    Q    Q       Q    Q    Q    Q       Q    Q    Q    Q     
----------------------|----------------------|----------------------|
----------------------|----------------------|----------------------|
-------7----5----3----|----------------------|-------2----3----4----|
--5-------------------|--5----0----2----4----|--5-------------------|


  Q    Q    Q    Q       Q    Q    Q    Q       Q    Q    Q    Q     
-------7----5---------|----------------------|----------------------|
-----------------7----|--9----7----5----3----|--2-------------------|
--5-------------------|----------------------|-------5----3----2----|
----------------------|----------------------|----------------------|


  Q    Q    Q    Q       Q    Q    Q    Q       Q    Q    Q    Q     
----------------------|----------------------|----------------------|
----------------------|----------------------|----------------------|
-------3----2----3----|-------5----7---------|-------7----5----3----|
--5-------------------|--4--------------4----|--5-------------------|


  Q    Q    Q    Q       Q    Q    Q    Q       Q    Q    Q    E  E   
----------------------|----------------------|-----------------------|
-----------------5----|----------------------|-----------------------|
--0----2----3---------|----------------------|-----------------------|
----------------------|--1----1----1----1----|--1----1----1----1--1--|


  Q    Q    Q    Q       Q    Q    Q    E  E     Q    Q    Q    Q     
----------------------|-----------------------|----------------------|
----------------------|-----------------------|----------------------|
--3----3----3----3----|--3----3----3----3--3--|--5----5----5----5----|
----------------------|-----------------------|----------------------|


  Q    Q    Q    E  E     Q    Q    Q    Q       Q    Q    Q    E  E   
-----------------------|----------------------|-----------------------|
-----------------------|--5----5----5----5----|--5----5----5----5-----|
--5----5----5----5--5--|----------------------|-----------------------|
-----------------------|----------------------|--------------------0--|


  Q    Q    Q    Q       Q    Q    Q    Q       Q    Q    Q    Q     
----------------------|-------7----5---------|----------------------|
----------------------|-----------------7----|--9----7----5----3----|
-------2----3----4----|--5-------------------|----------------------|
--5-------------------|----------------------|----------------------|


  Q    Q    Q    Q       Q    Q    Q    Q       Q    Q    Q    Q     
----------------------|----------------------|----------------------|
--2-------------------|----------------------|----------------------|
-------5----3----2----|-------3----2----3----|-------5----7---------|
----------------------|--5-------------------|--4--------------4----|


  Q    Q    Q    Q       Q    Q    Q    Q       Q    Q    Q    Q     
----------------------|----------------------|----------------------|
----------------------|----------------------|----------------------|
-------7----5----3----|----------------------|-------2----3----4----|
--5-------------------|--5----0----2----4----|--5-------------------|


  Q    Q    Q    Q       Q    Q    Q    Q       Q    Q    Q    Q       Q     
-------7----5---------|----------------------|----------------------|-------|
-----------------7----|--9----7----5----3----|--2-------------------|--x----|
--5-------------------|----------------------|-------5----3----2----|-------|
----------------------|----------------------|----------------------|-------|


  Q       Q       Q    Q    Q    Q       Q    Q    Q    Q     
-------|-------|----------------------|----------------------|
--x----|--x----|-----------------5----|----------------------|
-------|-------|--0----2----3---------|----------------------|
-------|-------|----------------------|--1----1----1----1----|


  Q    Q    Q    E  E     Q    Q    Q    Q       Q    Q    Q    E  E   
-----------------------|----------------------|-----------------------|
-----------------------|----------------------|-----------------------|
-----------------------|--3----3----3----3----|--3----3----3----3--3--|
--1----1----1----1--1--|----------------------|-----------------------|


  Q    Q    Q    Q       Q    Q    Q    E  E     Q    Q    Q    Q     
----------------------|-----------------------|----------------------|
----------------------|-----------------------|--5----5----5----5----|
--5----5----5----5----|--5----5----5----5--5--|----------------------|
----------------------|-----------------------|----------------------|


  Q    Q    Q    E  E     Q    Q    Q    Q       Q    Q    Q    Q     
-----------------------|----------------------|-------7----5---------|
--5----5----5----5-----|----------------------|-----------------7----|
-----------------------|-------2----3----4----|--5-------------------|
--------------------0--|--5-------------------|----------------------|


  Q    Q    Q    Q       Q    Q    Q    Q       Q    Q    Q    Q     
----------------------|----------------------|----------------------|
--9----7----5----3----|--2-------------------|----------------------|
----------------------|-------5----3----2----|-------3----2----3----|
----------------------|----------------------|--5-------------------|


  Q    Q    Q    Q       Q    Q    Q    Q       Q    Q    Q    Q     
----------------------|----------------------|-------7----5---------|
----------------------|----------------------|-----------------7----|
-------5----7---------|-------2----3----4----|--5-------------------|
--4--------------4----|--5-------------------|----------------------|


  Q    Q    Q    Q       Q    Q    Q    Q       Q    Q    Q    Q     
----------------------|-------7----5---------|----------------------|
----------------------|-----------------7----|--9----7----5----3----|
-------2----3----4----|--5-------------------|----------------------|
--5-------------------|----------------------|----------------------|


  Q    Q    Q    Q       Q    Q    Q    Q       Q    Q    Q    Q     
----------------------|----------------------|----------------------|
--2-------------------|----------------------|----------------------|
-------5----3----2----|-------3----2----3----|-------5----7---------|
----------------------|--5-------------------|--4--------------4----|


  Q    Q    Q    Q       Q    Q    Q    Q       Q    Q    Q    Q     
----------------------|-------7----5---------|----------------------|
----------------------|-----------------7----|----------------------|
-------2----3----4----|--5-------------------|----------------------|
--5-------------------|----------------------|--1----1----1----1----|


  Q    Q    Q    E  E     Q    Q    Q    Q       Q    Q    Q    E  E   
-----------------------|----------------------|-----------------------|
-----------------------|----------------------|-----------------------|
-----------------------|--3----3----3----3----|--3----3----3----3--3--|
--1----1----1----1--1--|----------------------|-----------------------|


  Q    Q    Q    Q       Q    Q    Q    E  E     Q    Q    Q    Q     
----------------------|-----------------------|----------------------|
----------------------|-----------------------|--5----5----5----5----|
--5----5----5----5----|--5----5----5----5--5--|----------------------|
----------------------|-----------------------|----------------------|


  Q    Q    Q    E  E     Q    Q    Q    Q       Q    Q    Q    Q     
-----------------------|----------------------|-------7----5---------|
--5----5----5----5-----|----------------------|-----------------7----|
-----------------------|-------2----3----4----|--5-------------------|
--------------------0--|--5-------------------|----------------------|


  Q    Q    Q    Q       Q    Q    Q    Q       Q    Q    Q    Q     
----------------------|----------------------|----------------------|
--9----7----5----3----|--2-------------------|----------------------|
----------------------|-------5----3----2----|-------3----2----3----|
----------------------|----------------------|--5-------------------|


  Q    Q    Q    Q       Q    Q    Q    Q       Q    Q    Q    Q     
----------------------|----------------------|----------------------|
----------------------|----------------------|----------------------|
-------5----7---------|-------7----5----3----|----------------------|
--4--------------4----|--5-------------------|--5----0----2----4----|


  Q    Q    Q    Q       Q    Q    Q    Q       Q    Q    Q    Q     
----------------------|-------7----5---------|----------------------|
----------------------|-----------------7----|--9----7----5----3----|
-------2----3----4----|--5-------------------|----------------------|
--5-------------------|----------------------|----------------------|


  Q    Q    Q    Q       Q    Q    Q    Q       Q    Q    Q    E  S S   
----------------------|----------------------|-------------------------|
--2-------------------|----------------------|-------------------------|
-------5----3----2----|----------------------|-------------------------|
----------------------|--1----1----1----1----|--0----0----0----0----4S-|


  Q    Q    Q    Q       Q    Q    Q    Q       Q    Q    Q    Q     
----------------------|----------------------|----------------------|
----------------------|----------------------|----------------------|
----------------------|--0----0----0----0----|----------------------|
--5----5----5----5----|----------------------|--1----1----1----1----|


  Q    Q    Q    Q       Q    Q    Q    Q       Q    Q    Q    Q     
----------------------|----------------------|----------------------|
----------------------|----------------------|----------------------|
----------------------|--0----0----0----0----|--0----0----0----0----|
--0----0----0----0----|----------------------|----------------------|


  Q    Q    Q    Q       Q    Q    Q    Q       Q    H        Q      
----------------------|----------------------|---------------------||
----------------------|----------------------|---------------------||
----------------------|----------------------|--0------------------||
--1----1----1----1----|--0----0----0----0----|---------------------||




Duration Legend
---------------
W - whole
H - half
Q - quarter
E - 8th
S - 16th
T - 32nd
X - 64th
. - note dotted
|-n-|  - n-tuplets


Tablature Legend
----------------
L - tied note
x - dead note
g - grace note
(n) - ghost note
> - accentuded note
NH - natural harmonic
AH - artificial harmonic
TH - tapped harmonic
SH - semi harmonic
PH - pitch harmonic
h - hammer on
p - pull off
b - bend
br - bendRelease
pb - preBend
pbr - preBendRelease
brb - bendReleaseBend
\n/ - tremolo bar dip
\n - tremolo bar dive
-/n - tremolo bar Release up
/n\ - tremolo bar inverted dip
/n - tremolo bar return
-\n - tremolo bar Release down
S - shift slide
s - legato slide
/ -  slide into from below or out of upwards
\ -  slide into from above or out of downwards
~ - vibrato
W - wide vibrato
tr - trill
TP - tremolo picking
T - tapping
S - slap
P - pop
< - fade in
^ - brush up
v - brush down
            
Submit corrections

comments powered by Disqus
↑ Back to top | Saigon Kick Bass for Chanel. Lyrics for acoustic guitar and electric guitar. Tablatures and chords are parodies/interpretations of the original songs. You may use it for private study, scholarship, research or language learning purposes only