>
 >
Body Bags

Body Bags Bass Tabs

Saigon Kick - Body Bags chords, tabs, tablatures, lyrics

Guitar lessons | Add/correct | Request | Top 50 tabs Artists:  A B C D E F G H I J K L M N O P Q R S T U V W X Y Z 0-9

Body Bags Bass Tabs – Saigon Kick

CD, Sheet music, Poster

Do you like Body Bags? Share with your friends now
Bass TabsTabs
-----------------------------------------------------------------------------
                       
-----------------------------------------------------------------------------

Tuning: Standard

=============================================================================

Bass



     H.            Q        S S S S S S S S S S S S S S S S  
G||----------------------|----------------------------------|
D||----------------------|----------------------------------|
A||----------------------|----------------------------------|
E||---------------12\----|--0---2-0-2---0-2---0-2---2---2---|


  S S S S S S S S S S S S Q       S S S S S S S S S S S S S S S S  
-------------------------------|----------------------------------|
-------------------------------|----------------------------------|
--------------------------1----|----------------------------------|
--0---2-0-2---0-2---0-2--------|--0---2-0-2---0-2---0-2---2---2---|


  S S S S S S S S S S S S Q       S S S S S S S S S S S S S S S S  
-------------------------------|----------------------------------|
-------------------------------|----------------------------------|
-------------------------------|----------------------------------|
--0---2-0-2---0-2---0-2---1----|--0---2-0-2---0-2---0-2---2---2---|


  S S S S S S S S S S S S Q       S S S S S S S S S S S S S S S S  
-------------------------------|----------------------------------|
-------------------------------|----------------------------------|
--------------------------1----|----------------------------------|
--0---2-0-2---0-2---0-2--------|--0---2-0-2---0-2---0-2---2---2---|


  S S S S S S S S S S S S Q       S S S S S S S S S S S S S S S S  
-------------------------------|----------------------------------|
-------------------------------|----------------------------------|
-------------------------------|----------------------------------|
--0---2-0-2---0-2---0-2---1----|--0---2-0-2---0-2---0-2---2---2---|


  S S S S S S S S S S S S Q       S S S S S S S S S S S S S S S S  
-------------------------------|----------------------------------|
-------------------------------|----------------------------------|
--------------------------1----|----------------------------------|
--0---2-0-2---0-2---0-2--------|--0---2-0-2---0-2---0-2---2---2---|


  S S S S S S S S S S S S Q       S S S S S S S S S S S S S S S S  
-------------------------------|----------------------------------|
-------------------------------|----------------------------------|
-------------------------------|----------------------------------|
--0---2-0-2---0-2---0-2---1----|--0---2-0-2---0-2---0-2---2---2---|


  S S S S S S S S S S S S Q       S S S S S S S S S S S S S S S S  
-------------------------------|----------------------------------|
-------------------------------|----------------------------------|
--------------------------1----|----------------------------------|
--0---2-0-2---0-2---0-2--------|--0---2-0-2---0-2---0-2---2---2---|


  S S S S S S S S S S S S Q       W                   W                 
-------------------------------|-------------------|-------------------|
-------------------------------|-------------------|-------------------|
-------------------------------|--2----------------|-------------------|
--0---2-0-2---0-2---0-2---1----|-------------------|--2----------------|


  W                   S S S S S S S S S S S S S S S S    W                 
-------------------|----------------------------------|-------------------|
-------------------|----------------------------------|-------------------|
-------------------|----------------------------------|--2----------------|
--0----------------|--0---2-0-2---0-2---0-2---2---2---|-------------------|


  W                   E  E  E  E  E  E  E  E     Q     
-------------------|--------------------------|-------|
-------------------|--------------------------|-------|
-------------------|--3--4--4--4--4--4--4--4--|--2----|
--2----------------|--------------------------|-------|


  S S S S S S S S S S S S S S S S    S S S S S S S S S S S S Q     
----------------------------------|-------------------------------|
----------------------------------|-------------------------------|
----------------------------------|--------------------------1----|
--0---2-0-2---0-2---0-2---2---2---|--0---2-0-2---0-2---0-2--------|


  S S S S S S S S S S S S S S S S    S S S S S S S S S S S S Q     
----------------------------------|-------------------------------|
----------------------------------|-------------------------------|
----------------------------------|-------------------------------|
--0---2-0-2---0-2---0-2---2---2---|--0---2-0-2---0-2---0-2---1----|


  S S S S S S S S S S S S S S S S    S S S S S S S S S S S S Q     
----------------------------------|-------------------------------|
----------------------------------|-------------------------------|
----------------------------------|--------------------------1----|
--0---2-0-2---0-2---0-2---2---2---|--0---2-0-2---0-2---0-2--------|


  S S S S S S S S S S S S S S S S    S S S S S S S S S S S S Q     
----------------------------------|-------------------------------|
----------------------------------|-------------------------------|
----------------------------------|-------------------------------|
--0---2-0-2---0-2---0-2---2---2---|--0---2-0-2---0-2---0-2---1----|


  S S S S S S S S S S S S S S S S    S S S S S S S S S S S S Q     
----------------------------------|-------------------------------|
----------------------------------|-------------------------------|
----------------------------------|--------------------------1----|
--0---2-0-2---0-2---0-2---2---2---|--0---2-0-2---0-2---0-2--------|


  S S S S S S S S S S S S S S S S    S S S S S S S S S S S S Q     
----------------------------------|-------------------------------|
----------------------------------|-------------------------------|
----------------------------------|-------------------------------|
--0---2-0-2---0-2---0-2---2---2---|--0---2-0-2---0-2---0-2---1----|


  W                   W                   W                 
-------------------|-------------------|-------------------|
-------------------|-------------------|-------------------|
--2----------------|-------------------|-------------------|
-------------------|--2----------------|--0----------------|


  S S S S S S S S S S S S S S S S    W                   W                 
----------------------------------|-------------------|-------------------|
----------------------------------|-------------------|-------------------|
----------------------------------|--2----------------|-------------------|
--0---2-0-2---0-2---0-2---2---2---|-------------------|--2----------------|


  E  E  E  E  E  E  E  E     Q    H        Q       E.  E.  Q    E  E  E   
--------------------------|---------------------|------------------------|
--------------------------|---------------------|------------------------|
--3--4--4--4--4--4--4--4--|--2------------------|------------------------|
--------------------------|---------------------|--0---1---2----5--2--0--|


  E.  E.  H        E     E.  E.  Q    E  E  E     E.  E.  H        E   
----------------------|------------------------|----------------------|
----------------------|------------------------|----------------------|
----------------------|------------------------|--3---2---0--------L--|
--0---1---2--------L--|--0---1---2----5--2--0--|----------------------|


  E.  E.  Q    E  E  E     E.  E.  H        E     W                 
------------------------|----------------------|-------------------|
------------------------|----------------------|-------------------|
------------------------|----------------------|--3----------------|
--0---1---2----5--2--0--|--0---1---2--------L--|-------------------|


  E  H        Q.        S S S S S S S S S S S S S S S S  
---------------------|----------------------------------|
---------------------|----------------------------------|
--2------------------|----------------------------------|
---------------------|--0---2-0-2---0-2---0-2---2---2---|


  S S S S S S S S S S S S Q       S S S S S S S S S S S S S S S S  
-------------------------------|----------------------------------|
-------------------------------|----------------------------------|
--------------------------1----|----------------------------------|
--0---2-0-2---0-2---0-2--------|--0---2-0-2---0-2---0-2---2---2---|


  S S S S S S S S S S S S Q       S S S S S S S S S S S S S S S S  
-------------------------------|----------------------------------|
-------------------------------|----------------------------------|
-------------------------------|----------------------------------|
--0---2-0-2---0-2---0-2---1----|--0---2-0-2---0-2---0-2---2---2---|


  S S S S S S S S S S S S Q       S S S S S S S S S S S S S S S S  
-------------------------------|----------------------------------|
-------------------------------|----------------------------------|
--------------------------1----|----------------------------------|
--0---2-0-2---0-2---0-2--------|--0---2-0-2---0-2---0-2---2---2---|


  S S S S S S S S S S S S Q       Q    Q    Q    Q       Q    Q    Q    Q     
-------------------------------|----------------------|----------------------|
-------------------------------|----------------------|----------------------|
-------------------------------|--2----2----2----2----|----------------------|
--0---2-0-2---0-2---0-2---1----|----------------------|--2----2----2----2----|


  Q    Q    Q    Q       S S S S S S S S S S S S S S S S    W                 
----------------------|----------------------------------|-------------------|
----------------------|----------------------------------|-------------------|
----------------------|----------------------------------|--2----------------|
--0----0----0----0----|--0---2-0-2---0-2---0-2---2---2---|-------------------|


  W                   E  E  E  E  E  E  E  E     Q    H        Q     
-------------------|--------------------------|---------------------|
-------------------|--------------------------|---------------------|
-------------------|--3--3--3--3--3--3--3--3--|--2------------------|
--2----------------|--------------------------|---------------------|


  S S S S S S S S S S S S S S S S    S S S S S S S S S S S S Q     
----------------------------------|-------------------------------|
----------------------------------|-------------------------------|
----------------------------------|--------------------------1----|
--0---2-0-2---0-2---0-2---2---2---|--0---2-0-2---0-2---0-2--------|


  S S S S S S S S S S S S S S S S    S S S S S S S S S S S S Q     
----------------------------------|-------------------------------|
----------------------------------|-------------------------------|
----------------------------------|-------------------------------|
--0---2-0-2---0-2---0-2---2---2---|--0---2-0-2---0-2---0-2---1----|


  S S S S S S S S S S S S S S S S    S S S S S S S S S S S S Q     
----------------------------------|-------------------------------|
----------------------------------|-------------------------------|
----------------------------------|--------------------------1----|
--0---2-0-2---0-2---0-2---2---2---|--0---2-0-2---0-2---0-2--------|


  S S S S S S S S S S S S S S S S    S S S S S S S S S S S S Q     
----------------------------------|-------------------------------|
----------------------------------|-------------------------------|
----------------------------------|-------------------------------|
--0---2-0-2---0-2---0-2---2---2---|--0---2-0-2---0-2---0-2---1----|


  S S S S S S S S S S S S S S S S    S S S S S S S S S S S S Q     
----------------------------------|-------------------------------|
----------------------------------|-------------------------------|
----------------------------------|--------------------------1----|
--0---2-0-2---0-2---0-2---2---2---|--0---2-0-2---0-2---0-2--------|


  S S S S S S S S S S S S S S S S    S S S S S S S S S S S S Q     
----------------------------------|-------------------------------|
----------------------------------|-------------------------------|
----------------------------------|-------------------------------|
--0---2-0-2---0-2---0-2---2---2---|--0---2-0-2---0-2---0-2---1----|


  S S S S S S S S S S S S S S S S    S S S S S S S S S S S S Q     
----------------------------------|-------------------------------|
----------------------------------|-------------------------------|
----------------------------------|--------------------------1----|
--0---2-0-2---0-2---0-2---2---2---|--0---2-0-2---0-2---0-2--------|


  S S S S S S S S S S S S S S S S    S S S S S S S S S S S S Q     
----------------------------------|-------------------------------|
----------------------------------|-------------------------------|
----------------------------------|-------------------------------|
--0---2-0-2---0-2---0-2---2---2---|--0---2-0-2---0-2---0-2---1----|


  S S S S S S S S S S S S S S S S    S S S S S S S S S S S S Q     
----------------------------------|-------------------------------|
----------------------------------|-------------------------------|
----------------------------------|--------------------------1----|
--0---2-0-2---0-2---0-2---2---2---|--0---2-0-2---0-2---0-2--------|


  S S S S S S S S S S S S S S S S    S S S S S S S S S S S S Q     
----------------------------------|-------------------------------|
----------------------------------|-------------------------------|
----------------------------------|-------------------------------|
--0---2-0-2---0-2---0-2---2---2---|--0---2-0-2---0-2---0-2---1----|


  W                   W                   W                 
-------------------|-------------------|-------------------|
-------------------|-------------------|-------------------|
--2----------------|-------------------|-------------------|
-------------------|--2----------------|--0----------------|


  S S S S S S S S S S S S S S S S    W                   W                 
----------------------------------|-------------------|-------------------|
----------------------------------|-------------------|-------------------|
----------------------------------|--2----------------|-------------------|
--0---2-0-2---0-2---0-2---2---2---|-------------------|--2----------------|


  E  E  E  E  E  E  E  E     Q    H        Q     
--------------------------|---------------------|
--------------------------|---------------------|
--3--3--3--3--3--3--3--3--|--2------------------|
--------------------------|---------------------|


  S S S S S S S S S S S S S S S S    S S S S S S S S S S S S E  E     Q     
----------------------------------|--------------------------------|-------|
----------------------------------|--------------------------------|-------|
----------------------------------|--------------------------1-----|-------|
--0---2-0-2---0-2---0-2---2---2---|--0---2-0-2---0-2---0-2---------|-------|


  S S S S S S S S S S S S S S S S    S S S S S S S S S S S S E  E     Q     
----------------------------------|--------------------------------|-------|
----------------------------------|--------------------------------|-------|
----------------------------------|--------------------------------|-------|
--0---2-0-2---0-2---0-2---2---2---|--0---2-0-2---0-2---0-2---1-----|-------|


  S S S S S S S S S S S S S S S S    S S S S S S S S S S S S E  E     Q     
----------------------------------|--------------------------------|-------|
----------------------------------|--------------------------------|-------|
----------------------------------|--------------------------1-----|-------|
--0---2-0-2---0-2---0-2---2---2---|--0---2-0-2---0-2---0-2---------|-------|


  S S S S S S S S S S S S S S S S    S S S S S S S S S S S S Q     
----------------------------------|-------------------------------|
----------------------------------|-------------------------------|
----------------------------------|-------------------------------|
--0---2-0-2---0-2---0-2---2---2---|--0---2-0-2---0-2---0-2---1----|


  S S S S S S S S S S S S S S S S    S S S S S S S S S S S S Q     
----------------------------------|-------------------------------|
----------------------------------|-------------------------------|
----------------------------------|--------------------------1----|
--0---2-0-2---0-2---0-2---2---2---|--0---2-0-2---0-2---0-2--------|


  S S S S S S S S S S S S S S S S    S S S S S S S S S S S S Q     
----------------------------------|-------------------------------|
----------------------------------|-------------------------------|
----------------------------------|-------------------------------|
--0---2-0-2---0-2---0-2---2---2---|--0---2-0-2---0-2---0-2---1----|


  S S S S S S S S S S S S S S S S    S S S S S S S S S S S S Q     
----------------------------------|-------------------------------|
----------------------------------|-------------------------------|
----------------------------------|--------------------------1----|
--0---2-0-2---0-2---0-2---2---2---|--0---2-0-2---0-2---0-2--------|


  S S S S S S S S S S S S S S S S    S S S S S S S S S S S S Q      
----------------------------------|-------------------------------||
----------------------------------|-------------------------------||
----------------------------------|-------------------------------||
--0---2-0-2---0-2---0-2---2---2---|--0---2-0-2---0-2---0-2---1----||




Duration Legend
---------------
W - whole
H - half
Q - quarter
E - 8th
S - 16th
T - 32nd
X - 64th
. - note dotted
|-n-|  - n-tuplets


Tablature Legend
----------------
L - tied note
x - dead note
g - grace note
(n) - ghost note
> - accentuded note
NH - natural harmonic
AH - artificial harmonic
TH - tapped harmonic
SH - semi harmonic
PH - pitch harmonic
h - hammer on
p - pull off
b - bend
br - bendRelease
pb - preBend
pbr - preBendRelease
brb - bendReleaseBend
\n/ - tremolo bar dip
\n - tremolo bar dive
-/n - tremolo bar Release up
/n\ - tremolo bar inverted dip
/n - tremolo bar return
-\n - tremolo bar Release down
S - shift slide
s - legato slide
/ -  slide into from below or out of upwards
\ -  slide into from above or out of downwards
~ - vibrato
W - wide vibrato
tr - trill
TP - tremolo picking
T - tapping
S - slap
P - pop
< - fade in
^ - brush up
v - brush down





Comments


Popular Saigon Kick tabs & chords
Come Take Me Now Bass Tabs
Cruelty Bass Tabs
God Of 42nd Street Bass Tabs
All I Want Chords
Hostile Youth Tabs
I Love You 1 Tabs
My Life 1 Tabs
Sergeant Steve Tabs
Sleep Tabs
Suzy Tabs


Song lyrics



↑ Back to top | Tablatures and chords are parodies/interpretations of the original songs. You may use it for private study, scholarship, research or language learning purposes only
© 2014 AZChords.com Contact us | Privacy policy | DMCA | Add/correct tabs | Request tabs | Top 50 tabs