» » »

Rhythm Is A Dancer Tabs (ver.1)

Artists:  A B C D E F G H I J K L M N O P Q R S T U V W X Y Z # 

Rhythm Is A Dancer Tabs (ver.1)

Sagi Rei
Rating:
4/5 (5 votes)

Hard to play? Try these video lessons and learn fast.
                
That's how I like to play it.
It's not identical to the original, but I think it sounds pretty close.
It's my first tab, so comments are more than welcome.


Standard tuning.

| /     slide up
| h     hammer-on
| p     pull-off
| p.m.  palm-mute


Chords used (rhythm guitar):

Em:  x  7  9  9  8  7
C:   8 10 10  9  8  8
D:  10 12 12 11 10 10

I think the above bar chords sound better for the rhythm guitar, but you
can play the open chords just as well:

Em:  0 2 2 0 0 0
C:   0 3 2 0 1 0
D:   x x 0 2 3 2


Rhythm A:

Em / C / D / Em

Rhythm B:

D|-------------------|
A|--7------------7---|
E|------8---10-------|


Intro:

e|--------0-------------0---------------------------|
B|----------0---------1---3-------------------------|
G|------0-----0-------------2/4-4-------------------|
D|----2-------------2-----0-------------------------|
A|--------------3-----------------------------------|
E|--0-------------0---------------------------------|

e|----0---3p0---------0---2------0------------------|
B|------0-----1-----1-----3--3---0------------------|
G|--0-------------0-------2------0------------------|
D|--------------2---------0------2------------------|
A|--------------------------------------------------|
E|--------------------------------------------------|

('Rhythm A' kicks in)

e|--------12-15p12--7h8-------8-10-------12-7-------|
B|-----12---------------8---8------10---------8-----|
G|--12--------------------9-----------11--------9---|
D|--------------------------------------------------|
A|--------------------------------------------------|
E|--------------------------------------------------|

e|--------------------------------------------------|
B|----------------1-3-------------------------------|
G|--0-----------0-----2-----------------------------|
D|----2-------2---------4-2-------------------------|
A|--------0-3---------------2-----------------------|
E|------3---------------------3-2-0-----------------|


Main riff:

e|--7-----------------------------------------------|
B|----8-10-8------5--------7--------8---------------|
G|------------5-5---5--7-7---7--9-9---9-------------|
D|--------------------------------------------------|
A|--------------------------------------------------|
E|--------------------------------------------------| x8

(Rhythm switches to 'Rhythm B')

    p.m.
e|--7-----------------------------------------------|
B|----8-10-8------5--------7--------8---------------|
G|------------5-5---5--7-7---7--9-9---9-------------|
D|--------------------------------------------------|
A|--------------------------------------------------|
E|--------------------------------------------------| x4

    Not p.m. anymore
e|--7-----------------------------------------------|
B|----8-10-8------5--------7--------8---------------|
G|------------5-5---5--7-7---7--9-9---9-------------|
D|--------------------------------------------------|
A|--------------------------------------------------|
E|--------------------------------------------------| x5

(Rhythm switches back to 'Rhythm A')

e|--7-----------------------------------------------|
B|----8-10-8------5--------7--------8---------------|
G|------------5-5---5--7-7---7--9-9---9-------------|
D|--------------------------------------------------|
A|--------------------------------------------------|
E|--------------------------------------------------| x8


Bridge:

(Still 'Rhythm A', a bit softer)

e|--0-------0-2p0---0---0---3p0---------0--2----0---|
B|----1---1-------3-------0-----1-----1----3-3--0---|
G|------0-------------0-------------0------2----0---|
D|--------------------------------2--------0----2---|
A|--------------------------------------------------|
E|--------------------------------------------------|

e|--------12-15p12--7h8-------8-10-------12-7-------|
B|-----12---------------8---8------10---------8-----|
G|--12--------------------9-----------11--------9---|
D|--------------------------------------------------|
A|--------------------------------------------------|
E|--------------------------------------------------|

e|--15p12--7h8-------8---14-------12----------------|
B|-------------8---8-----15--15---12----------------|
G|---------------9-------14-------12----------------|
D|--------------------------------------------------|
A|--------------------------------------------------|
E|--------------------------------------------------|


Main riff continues until the end:

('Rhythm A' picks up again)

e|--7-----------------------------------------------|
B|----8-10-8------5--------7--------8---------------|
G|------------5-5---5--7-7---7--9-9---9-------------|
D|--------------------------------------------------|
A|--------------------------------------------------|
E|--------------------------------------------------| x16
            
Hard to play? Try these video lessons and learn fast. | Correct




comments powered by Disqus
↑ Back to top | Tablatures and chords are parodies/interpretations of the original songs. You may use it for private study, scholarship, research or language learning purposes only