» » »

Ill Fly With You Tabs (ver.1)

Artists:  A B C D E F G H I J K L M N O P Q R S T U V W X Y Z # 

Ill Fly With You Tabs (ver.1)

Sagi Rei
Rating:
0/5 (0 votes)

Tabs too difficult? Try these video lessons and learn fast.
                The Chords are always D maj - F# maj - B min - G maj.
Arpeggious
      D         F#   Bmin        G
e -----0---------0---------0----------0--|
B ---3--3------2--2------3--3-------3--3-|
G --2-2--2----3-3--3----4-4--4-----4-4--4|
D -0---------4---------4----------5------|
A ---------------------------------------|
E ---------------------------------------|


e -------------------------------------|
B --10-9-7----10-9-7-------------------|
G -7--7-7----7--7-7-7------------------|
D -------------------------------------|
A -------------------------------------|
E -------------------------------------|

By MarcoSty
            
Tabs too difficult? Try these video lessons and learn fast.




comments powered by Disqus
↑ Back to top | Tablatures and chords are parodies/interpretations of the original songs. You may use it for private study, scholarship, research or language learning purposes only