» » »

Someone Like You Tabs (ver.1)

Artists:  A B C D E F G H I J K L M N O P Q R S T U V W X Y Z # 

Someone Like You Tabs (ver.1)

Safetysuit
Rating:
5/5 (2 votes)

Hard to play? Try these video lessons and learn fast.
                Intro:

e|---------------------------------|
B|-------8-8-8-------5-5-5---------|
G|-5-5-5-------7-7-7-------5-5-7-7-|
D|---------------------------------|
A|---------------------------------|
E|---------------------------------|

e|---------------------------------|
B|-------8-8-8-------5-5-5---------|
G|-4-4-4-------7-7-7-------5-5-7-7-| |X2
D|---------------------------------|
A|---------------------------------|
E|---------------------------------|

e|---------------------------------|
B|-------8-8-8---------------------|
G|-4-4-4-------7-7-7-5-5-5-5-5-5-5-|
D|---------------------------------|
A|---------------------------------|
E|---------------------------------|

Verse one:

PM whole verse: (32 notes of each chord)

e|----------------------------------------------------------------|
B|----------------------------------------------------------------|
G|-5-5-5-5-5-5-5-5-5-5-5-5-5-5-5-5-5-5-5-5-5-5-5-5-5-5-5-5-5-5-5-5|
D|-5-5-5-5-5-5-5-5-5-5-5-5-5-5-5-5-5-5-5-5-5-5-5-5-5-5-5-5-5-5-5-5|
A|-3-3-3-3-3-3-3-3-3-3-3-3-3-3-3-3-3-3-3-3-3-3-3-3-3-3-3-3-3-3-3-3|
E|----------------------------------------------------------------|

e|----------------------------------------------------------------|
B|----------------------------------------------------------------|
G|----------------------------------------------------------------|
D|-7-7-7-7-7-7-7-7-7-7-7-7-7-7-7-7-7-7-7-7-7-7-7-7-7-7-7-7-7-7-7-7|
A|-7-7-7-7-7-7-7-7-7-7-7-7-7-7-7-7-7-7-7-7-7-7-7-7-7-7-7-7-7-7-7-7|
E|-5-5-5-5-5-5-5-5-5-5-5-5-5-5-5-5-5-5-5-5-5-5-5-5-5-5-5-5-5-5-5-5|

e|----------------------------------------------------------------|
B|----------------------------------------------------------------|
G|-5-5-5-5-5-5-5-5-5-5-5-5-5-5-5-5-5-5-5-5-5-5-5-5-5-5-5-5-5-5-5-5|
D|-5-5-5-5-5-5-5-5-5-5-5-5-5-5-5-5-5-5-5-5-5-5-5-5-5-5-5-5-5-5-5-5|
A|-3-3-3-3-3-3-3-3-3-3-3-3-3-3-3-3-3-3-3-3-3-3-3-3-3-3-3-3-3-3-3-3|
E|----------------------------------------------------------------|

e|----------------------------------------------------------------|
B|----------------------------------------------------------------|
G|----------------------------------------------------------------|
D|-5-5-5-5-5-5-5-5-5-5-5-5-5-5-5-5-5-5-5-5-5-5-5-5-5-5-5-5-5-5-5-5|
A|-5-5-5-5-5-5-5-5-5-5-5-5-5-5-5-5-5-5-5-5-5-5-5-5-5-5-5-5-5-5-5-5|
E|-3-3-3-3-3-3-3-3-3-3-3-3-3-3-3-3-3-3-3-3-3-3-3-3-3-3-3-3-3-3-3-3|

Chorus:

e|------------------------------------|
B|------------------------------------|
G|-5-----------------5----------------|
D|-5-X16-7-----3-----5-X16-7-----3----|
A|-3-----7-X8--3-X8--3-----7-X8--3-X1-|
E|-------5-----1-----------5-----1----|

Pre-Verse:

e|-----------------------------------------------------------------|
B|-------8-8-8-------5-5-5---------------8-8-8---------------------|
G|-4-4-4-------7-7-7-------5-5-7-7-4-4-4-------7-7-7-5-5-5-5-5-5-5-|
D|-----------------------------------------------------------------|
A|-----------------------------------------------------------------|
E|-----------------------------------------------------------------|

Verse 2 (repeat first):

PM whole verse: (32 notes of each chord)

e|----------------------------------------------------------------|
B|----------------------------------------------------------------|
G|-5-5-5-5-5-5-5-5-5-5-5-5-5-5-5-5-5-5-5-5-5-5-5-5-5-5-5-5-5-5-5-5|
D|-5-5-5-5-5-5-5-5-5-5-5-5-5-5-5-5-5-5-5-5-5-5-5-5-5-5-5-5-5-5-5-5|
A|-3-3-3-3-3-3-3-3-3-3-3-3-3-3-3-3-3-3-3-3-3-3-3-3-3-3-3-3-3-3-3-3|
E|----------------------------------------------------------------|

e|----------------------------------------------------------------|
B|----------------------------------------------------------------|
G|----------------------------------------------------------------|
D|-7-7-7-7-7-7-7-7-7-7-7-7-7-7-7-7-7-7-7-7-7-7-7-7-7-7-7-7-7-7-7-7|
A|-7-7-7-7-7-7-7-7-7-7-7-7-7-7-7-7-7-7-7-7-7-7-7-7-7-7-7-7-7-7-7-7|
E|-5-5-5-5-5-5-5-5-5-5-5-5-5-5-5-5-5-5-5-5-5-5-5-5-5-5-5-5-5-5-5-5|

e|----------------------------------------------------------------|
B|----------------------------------------------------------------|
G|-5-5-5-5-5-5-5-5-5-5-5-5-5-5-5-5-5-5-5-5-5-5-5-5-5-5-5-5-5-5-5-5|
D|-5-5-5-5-5-5-5-5-5-5-5-5-5-5-5-5-5-5-5-5-5-5-5-5-5-5-5-5-5-5-5-5|
A|-3-3-3-3-3-3-3-3-3-3-3-3-3-3-3-3-3-3-3-3-3-3-3-3-3-3-3-3-3-3-3-3|
E|----------------------------------------------------------------|

e|----------------------------------------------------------------|
B|----------------------------------------------------------------|
G|----------------------------------------------------------------|
D|-5-5-5-5-5-5-5-5-5-5-5-5-5-5-5-5-5-5-5-5-5-5-5-5-5-5-5-5-5-5-5-5|
A|-5-5-5-5-5-5-5-5-5-5-5-5-5-5-5-5-5-5-5-5-5-5-5-5-5-5-5-5-5-5-5-5|
E|-3-3-3-3-3-3-3-3-3-3-3-3-3-3-3-3-3-3-3-3-3-3-3-3-3-3-3-3-3-3-3-3|


Chorus:

e|------------------------------------|
B|------------------------------------|
G|-5-----------------5----------------|
D|-5-X16-7-----3-----5-X16-7-----3----|
A|-3-----7-X8--3-X8--3-----7-X8--3-X1-|
E|-------5-----1-----------5-----1----|

Bridge:

PM-----------------|

e|---------------------------------|
B|---------------------------------|
G|---------------------------------|
D|-7-----5-----3-----5-------------|
A|-7-X16-5-X16-3-X16-5-X1----------|
E|-5-----3-----1-----3-------------|

PM---------------------------------|

e|---------------------------------|
B|---------------------------------|
G|-5-------------------------------|
D|-5-X32-7-----3-------------------|
A|-3-----7-X16-3-X16---------------|
E|-------5-----1-------------------|

Chorus:

e|------------------------------------|
B|------------------------------------|
G|-5-----------------5----------------|
D|-5-X16-7-----3-----5-X16-7-----3----|
A|-3-----7-X8--3-X8--3-----7-X8--3-X8-|
E|-------5-----1-----------5-----1----|

Solo:

e|-------------------------------------------------------------------------|
B|-----------------8-8-8-8---8---5-----------------8-8-8-8---8---5---------|
G|-5-5-5-5-5-5-5-5---------7---7---5-5-5-5-5-5-5-5---------7---7---5-5-----|
D|-------------------------------------------------------------------5-X16-|
A|-------------------------------------------------------------------3-----|
E|-------------------------------------------------------------------------|

Outro:

e|---------------------------------|
B|-------8-8-8-------5-5-5---------|
G|-4-4-4-------7-7-7-------5-5-7-7-| X2
D|---------------------------------|
A|---------------------------------|
E|---------------------------------|

e|---------------------------------|
B|---------------------------------|
G|-----------5---------------------|
D|-5----3----3-X1------------------|
A|-5-X8-3-X8-3---------------------|
E|-3----1--------------------------|


Lyrics:

If I were strong enough, if I were wrong enough to be someone like you
Would you have let me come to be with you
If I had made my own and I had overcome to be someone like you
Would you have let me come to be with you

If I could be with someone like you
Would you, would you be strong enough for me
And if I could stay with someone like you
Would you, would you be strong enough

If I had made my way, if I had chose to stay and be someone like you
Would you have let me come to be with you
If I had made myself become like someone else and be someone like you
Would you have let me come to be with you

If I could be with someone like you
Would you, would you be strong enough for me
And if I could stay with someone like you
Would you, would you be strong enough for me

Can you see me holding you right in my arms, right in my arms

If I could be with someone who's just like you
Would you, would you, would you be strong enough for me
If I could be with someone like you
Would you, would you be strong enough for me
And if I could stay with someone like you
Would you, would you be strong enough for me

Would you be strong
Would you be strong
            
Hard to play? Try these video lessons and learn fast. | Correct




comments powered by Disqus
↑ Back to top | Tablatures and chords are parodies/interpretations of the original songs. You may use it for private study, scholarship, research or language learning purposes only