» » »

Saetia, Venus And Bacchus Tabs (ver.2)

Artists:  A B C D E F G H I J K L M N O P Q R S T U V W X Y Z # 

Venus And Bacchus Tabs (ver.2)

Saetia Tabs
Rating:
4/5 (2 votes)
Venus And Bacchus lessons Tabs too difficult? Try these video lessons and learn fast
                -------------------------------------------------------------------------------
“Venus and Bacchus” - Saetia
-------------------------------------------------------------------------------

Tuning: open d (DADGbe)

About half of this was taken from the other version of this tab. I just improved it.

The intro was dead on though.

e|---------------------------------------7----------| 
B|---8p7---7------8p7---7------8p7----------10-8-7--| 
G|-------9------------9------------9-----0----------|X4 
D|--------------------------------------------------| 
A|--------------------------------------------------| 
D|--------------------------------------------------| 

e|-----------8-7---8-7---8-7---8-7---8-7----| 
B|--8--7---------8-----8-----8-----8-----8--| 
G|--------9---------------------------------| X2 
D|------------------------------------------| 
A|------------------------------------------| 
D|--0--0--0---------------------------------| 

e|---------------------------------------7----------| 
B|---8p7---7------8p7---7------8p7----------10-8-7--| 
G|-------9------------9------------9-----0----------|X2 
D|--------------------------------------------------| 
A|--------------------------------------------------| 
D|--------------------------------------------------| 

e|--12-12-12-12-12-12-12-12-12-12-12-12-12-12-12-12--| 
B|---------------------------------------------------| 
G|---------------------------------------------------| 
D|---------------------------------------------------| 
A|---------------------------------------------------| 
D|---------------------------------------------------| 

e|--10-10-10-10-10-10-10-10-10-10-10-10-10-10-10-10--| 
B|---------------------------------------------------| 
G|---------------------------------------------------| 
D|---------------------------------------------------| 
A|---------------------------------------------------| 
D|---------------------------------------------------| 

e|--12-12-12-12-12-12-12-12-12-12-12-12-12-12-12-12--| 
B|---------------------------------------------------| 
G|---------------------------------------------------| 
D|---------------------------------------------------| 
A|---------------------------------------------------| 
D|---------------------------------------------------| 
 
e|--10-10-10-10-10-10-10-10-----------------| 
B|---------------------------12-10----------| 
G|----------------------------------12--11--| 
D|---------------------------9--7-----------| 
A|----------------------------------10--9---| 
D|------------------------------------------| 

GUITAR 1 (CHORUS?) Not to sure about this part but it works.
e|-----------------------------------------------|
B|-----------------------------------------------|
G|-------------------------------16--14--12--11--|
D|-5P4--2-4—-5P4--2-4—-5P4--2-4------------------|
A|-2-2--2-2--2-2--2-2--2-2--2-2--14--12--10--9---|
D|-2-2--2-2--2-2--2-2--2-2--2-2------------------|

GUITAR 2 (CHORUS?)
e|-------------------------------------------------| 
B|-------------------------------------------------| 
G|----------------------------------16--14--12--11-| 
D|--5p4---4-----5p4---4----5p4---------------------| 
A|------7----------7-----------7----14--12--10--9--| 
D|-------------------------------------------------|  

POST CHORUS GUITAR 1
e|--------|
B|--------|
G|--9--7--| X4
D|--9--7--|
A|--7--5--|
D|--------|

e|------------------------------------------------|
B|------------------------------------------------|
G|--------7-7-7-7-7----------7-/-14-14-14-14------| X4
D|-2/3-2--------------2/3-2-----------------------|
A|-2/3-2--5-5-5-5-5---2/3-2--5-/-12-12-12-12------|
D|-2/3-2--------------2/3-2-----------------------|
 
e|--------|
B|--------|
G|--9--7--| X4
D|--9--7--|
A|--7--5--|
D|--------|


e|-----------------------------------------------------------| 
B|-----------------------------------------------------------| 
G|----------9--------------------------9---------------------| X2 
D|--9-9-9-9---7-7-7-7-7-7-7-7--9-9-9-9---7-7-7-7-7-7-7-7-----| 
A|--7-7-7-7---5-5-5-5-5-5-5-5--7-7-7-7---5-5-5-5-5-5-5-5-----| 
D|-----------------------------------------------------------| 

e|---------------------------------------------------| 
B|-------------12------------------------------------| 
G|-----------------------------12-12-12/11-11-11-----| 
D|--5--5-5-5-5-9----2--2-2-2-2-----------------------|X4 
A|--5--5-5-5-5------2--2-2-2-2-10-10-10/9--9--9------| 
D|--5--5-5-5-5------2--2-2-2-2-----------------------| 

e|------------------| 
B|-------------12---| 
G|------------------| 
D|--5--5-5-5-5-9----| ending 
A|--5--5-5-5-5------| 
D|--5--5-5-5-5------| 

That’s pretty much it. About 90% accurate.
            
Submit corrections

comments powered by Disqus
↑ Back to top | Saetia Tabs for Venus And Bacchus. Lyrics for acoustic guitar and electric guitar. Tablatures and chords are parodies/interpretations of the original songs. You may use it for private study, scholarship, research or language learning purposes only