» » »

Smooth Operator Bass tabs (ver.2)

Artists:  A B C D E F G H I J K L M N O P Q R S T U V W X Y Z # 

Smooth Operator Bass tabs (ver.2)

Sade
Rating:
5/5 (1 vote)

Hard to play? Try these video lessons and learn fast.
                Smooth Operator.btab
Sade
TablEdited by Poppis

 tempo 120       |       |        |       |       |       |        
|--------------------------------|--------------------------------|
|--------------------------------|--------------------------------|
|--------------------------------|--------------------------------|
|--------------------------------|--------------------------------|
 
 |       |       |       |        |       |       |       |        
|--------------------------------|--------5/--4-------------------|
|--------------------------------|----------------5/--4-----------|
|--------------------------------|------------------------5---4---|
|--------------------------------|--------------------------------|
 
 |       |       |       |        |       |       |       |        
|--------------------------------|--------------------------------|
|0-----------0-------------------|--------------------------------|
|----------------4---0-------3---|3---0-------3---2---------------|
|--------------------------------|------------------------3-------|
 
 |       |       |       |        |       |       |       |        
|--------------------------------|--------------------------------|
|0---0---0---0-------------------|--------------------------------|
|----------------4---0-------3---|3---0-------3---2---3-------4---|
|--------------------------------|--------------------------------|
 
 |       |       |       |        |       |       |       |        
|--------------------------------|--------------------------------|
|0---0-------0-------------------|--------------------------------|
|----------------4---0-------3---|3---0-------3---2---------------|
|--------------------------------|------------------------3-------|
 
 |       |       |       |        |       |       |       |        
|--------------------------------|--------------------------------|
|0---0-------0-------------------|--------------------------------|
|----------------4---0-------3---|3---0-------3---2---2---3-------|
|--------------------------------|--------------------------------|
 
 |       |       |       |        |       |       |       |        
|--------------------------------|--------------------------------|
|0-----------0-------------------|--------------------------------|
|----------------0-----------0---|----------------0-------3-------|
|--------------------------------|3-----------3-------------------|
 
 |       |       |       |        |       |       |       |        
|--------------------------------|--------------------------------|
|0-----------0-------------------|--------------------------------|
|----------------0-----------0---|----------------0-------3-------|
|--------------------------------|3-----------3-------------------|
 
 |       |       |       |        |       |       |       |        
|--------------------------------|--------------------------------|
|0-----------0-------------------|--------------------------------|
|----------------0-----------0---|----------------0-------3-------|
|--------------------------------|3-----------3-------------------|
 
 |       |       |       |        |       |       |       |        
|--------------------------------|--------------------------------|
|0-----------0-------------------|----------------------------2---|
|----------------0-----------0---|----------------0---3-----------|
|--------------------------------|3-----------3-------------------|
 
 |       |       |       |        |       |       |       |        
|--------------------------------|--------------------------------|
|0-----------0-------------------|--------------------------------|
|----------------0-----------0---|----------------0---0---3---3---|
|--------------------------------|3-----------3-------------------|
 
 |       |       |       |        |       |       |       |        
|--------------------------------|--------------------------------|
|0-----------0-------------------|--------------------------------|
|----------------0-----------0---|----------------0---0---3---3---|
|--------------------------------|3-----------3-------------------|
 
 |       |       |       |        |       |       |       |        
|--------------------------------|--------------------------------|
|0---0-------0-------------------|--------------------------------|
|----------------0---0-------0---|----------------0---0---3-------|
|--------------------------------|3-----------3-------------------|
 
 |       |       |       |        |       |       |       |        
|--------------------------------|--------------------------------|
|0-----------0-------------------|----------------------------2---|
|----------------0-----------0---|----------------0---3-----------|
|--------------------------------|3---3-------3-------------------|
 
 |       |       |       |        |       |       |       |        
|----------------0---------------|----------------2---------------|
|----------------------0---------|------------2---------2---------|
|--------------------------------|0---------------------------0---|
|3-------3---3---------------3---|--------------------------------|
 
 |       |       |       |        |       |       |       |        
|--------------------------------|--------------------------------|
|0-----------0-------------------|--------------------------------|
|----------------4-----------4---|3-----------3---2---------------|
|--------------------------------|----------------------0-----2---|
 
 |       |       |       |        |       |       |       |        
|----------------0---------------|----------------2---------------|
|------------0---------0---------|------------2---------2---------|
|--------------------------------|0---------------------------0---|
|3---------------------------3---|--------------------------------|
 
 |       |       |       |        |       |       |       |        
|--------------------------------|--------------------------------|
|0-----------0---0---------------|0-----------0---0---0---2---0---|
|----------------------------0---|--------------------------------|
|--------------------------------|--------------------------------|
 
 |       |       |       |        |       |       |       |        
|----------------0---------------|----------------2---------------|
|--------------0-----0-----------|------------2-------2-----------|
|--------------------------------|0---------------------------0---|
|3-------3---3---------------3---|--------------------------------|
 
 |       |       |       |        |       |       |       |        
|--------------------------------|--------------------------------|
|--------0-------------------0---|--------------------------------|
|--------------------0---3-------|--------------------------------|
|--------------------------------|--------------------------------|
 
 |       |       |       |        |       |       |       |        
|--------------------------------|--------------------------------|
|0-------------------------------|--------------------------------|
|----------------0-----------0---|----------------0---0---3---3---|
|--------------------------------|3-----------3-------------------|
 
 |       |       |       |        |       |       |       |        
|--------------------------------|--------------------------------|
|0-----------0-------------------|--------------------------------|
|----------------0-----------0---|----------------0---0---3---3---|
|--------------------------------|3---3-------3-------------------|
 
 
            
Hard to play? Try these video lessons and learn fast. | Correct




comments powered by Disqus
↑ Back to top | Tablatures and chords are parodies/interpretations of the original songs. You may use it for private study, scholarship, research or language learning purposes only