» » »

Sade, Never As Good As The First Time Bass tabs (ver.1)

Artists:  A B C D E F G H I J K L M N O P Q R S T U V W X Y Z # 

Never As Good As The First Time Bass tabs (ver.1)

Sade Tabs
Rating:
0/5 (0 votes)
Never As Good As The First Time lessons Tabs too difficult? Try these video lessons and learn fast
                Main:
g:----------------------------|
d:----------------------------|
a:----------------------------|
e:2-0-2-0-2---0---2-0-2-0-----|

Fill:
g:------------------------|
d:------------------------|
a:---------------2--------|
e:0-2-0-2-0---2------9\\\\|

Chorus:
  s   p p  s   p p p  s  p p   s p p  p
g:-----------------------5-5-----5-5---|
d:----3-3------3-3-0------------------3|
a:--------------------3--------3-------|
e:3--------3---------------------------|

Song Order:
Main:x16
Fill:x1
Chorus:x2
Main:x8
Chorus:x4
Main:x17
            

comments powered by Disqus
↑ Back to top | Sade Bass for Never As Good As The First Time. Lyrics for acoustic guitar and electric guitar. Tablatures and chords are parodies/interpretations of the original songs. You may use it for private study, scholarship, research or language learning purposes only