» » »

Ruts, Secret Soldiers Tabs (ver.1)

Artists:  A B C D E F G H I J K L M N O P Q R S T U V W X Y Z # 

Secret Soldiers Tabs (ver.1)

Ruts Tabs
 Rating:
4/5 (4 votes)
Secret Soldiers lessons Tabs too difficult? Try these video lessons and learn fast
                Band - The Ruts
Song - Secret Soldier
Album - The Crack


Tuning: Standard (E A D G B E)

Pretty Cool Track By One Of The Greatest Punk Bands Of All Time.

R.I.P Paul Fox

Key
/=Slide

Main Riff
|-------------------------|
|-------------------------|
|-99-99-99-99-55-55-44-44-|
|-xx-xx-xx-xx-xx-xx-xx-xx-|
|-77-77-77-77-33-33-22-22-|
|-------------------------|

Main Riff Riff Variation
|----------------------------------|
|----------------------------------|
|-99-99-99-99-55-55--4/5-4/5-4/5-4-|
|-xx-xx-xx-xx-xx-xx--x-x-x-x-x-x-x-|
|-77-77-77-77-33-33--2/3-2/3-2/3-2-|
|----------------------------------|

Bridge
|-------------|
|-------------|
|-9-------9---|
|-9-------9---|
|-7-------7---|
|-------------|

Chorus
|-----------------------------------|
|-----------------------------------|
|-12/11----12/11----12/11----12/11--|
|-x--x-----x--x-----x--x-----x--x---|
|-10/9-----10/9-----10/9-----10/9---|
|-----------------------------------|

|----------------------------------|
|----------------------------------|
|-12/11----12/11----12/11----------|
|-x--x-----x--x-----x--x-----10/9--|
|-10/9-----10/9-----10/9-----x--x--|
|----------------------------8-/7--|

|-----------------------------------|
|-----------------------------------|
|-12/11----12/11----12/11----12/11--|
|-x--x-----x--x-----x--x-----x--x---|
|-10/9-----10/9-----10/9-----10/9---|
|-----------------------------------|

Chorus 2
|----------------------------------|
|----------------------------------|
|-12/11----12/11----12/11----------|
|-x--x-----x--x-----x--x-----10/9--| x3
|-10/9-----10/9-----10/9-----x--x--|
|----------------------------8-/7--|

|-----------------------------------|
|-----------------------------------|
|-12/11----12/11----12/11----12/11--|
|-x--x-----x--x-----x--x-----x--x---|
|-10/9-----10/9-----10/9-----10/9---|
|-----------------------------------|

Outro
Part 1
|----|
|----|
|-99-|
|-xx-| x12
|-77-|
|----|

Part 2
|----|
|----|
|-99-|
|-99-| x9
|-77-|
|----|

End On E5
|----|
|----|
|-9--|
|-9--|
|-7--|
|----|

Structure
Main Riff x3
Main Riff Variation
Bridge x2
Main Riff x2
Chorus 1
Main Riff x2
Main Riff Variation
Bridge x2
Chorus 2
Outro

Noice, Rate & Comment Please.
            
Submit corrections

comments powered by Disqus
↑ Back to top | Ruts Tabs for Secret Soldiers. Lyrics for acoustic guitar and electric guitar. Tablatures and chords are parodies/interpretations of the original songs. You may use it for private study, scholarship, research or language learning purposes only