» » »

Ruts, Babylons Burning Tabs (ver.1)

Artists:  A B C D E F G H I J K L M N O P Q R S T U V W X Y Z # 

Babylons Burning Tabs (ver.1)

Ruts Tabs
 Rating:
4/5 (6 votes)
Babylons Burning lessons Tabs too difficult? Try these video lessons and learn fast
1
                -----------------------------------------------------------------
BABLYLON'S BURNING - Ruts
-----------------------------------------------------------------

I tabbed this because I couldn't find any tabs for it elsewhere.
rendition of it. Please rate and comment!


Tuning: EADGBE
                                                      Alt. Tail
e|--------------------------------------------------|---------------------|
B|--------------------------------------------------|---------------------|
G|--------------------------------------------------|---------------------|
D|-----------------------2-2--3-3--2-2--------------|--2-2------2-2-------|
A|--0-0--2-2--3-3--5-5------------------3-3---------|-------3-3-----3-3---|
E|--------------------------------------------------|---------------------|

Then...

                                                      Alt. Tail
e|--------------------------------------------------|---------------------|
B|--------------------------------------------------|---------------------|
G|-----------------------2-2--3-3--2-2--------------|--2-2------2-2-------|
D|--0-0--2-2--3-3--5-5-----------------3--3---------|------3-3------3-3---|
A|--------------------------------------------------|---------------------|
E|--------------------------------------------------|---------------------|



   Continues with verse....^^^
e|--------------------------------|
B|--------------------------------|
G|--------------------------------|
D|---7--7-7-7---9--9-9-9-9-9-9-9--|
A|---5--5-5-5---7--7-7-7-7-7-7-7--|
E|--------------------------------|
     With Anixiety!

e|-----------------------|
B|-----------------------|
G|---7-7------------7----|
D|---7-7------------7----|  
A|---5-5------------5----|
E|-----------------------|
   Before second verse.


e|----------------------------------------------------------------------------|
B|----------------------------------------------------------------------------|
G|----------------------------------------------------------------------------|
D|----------------------------------------------------------------------------|
A|--5-5-5-5--6-6-6-6---7-7-7-7-7-7-7-7---------8-8-8-8--9-9-9-9--10-10-10-----|
E|--3-3-3-3--4-4-4-4---5-5-5-5-5-5-5-5---------6-6-6-6--7-7-7-7---8--8--8-----|
Babylon...           you see?                 Babylon...          Anxiety!


Then the other riffs repeat (listen to track for timing etc.)


e|---------------------------|
B|---------------------------|
G|---------------------------|
D|---------------------------|
A|-----------------7-7-7-7---|
E|-----------------5-5-5-5---|
  Babylons Burning!

Song end. :)


| /  slide up
| \  slide down
| h  hammer-on
| p  pull-off
| ~  vibrato
| +  harmonic
| x  Mute note
            
Submit corrections

comments powered by Disqus
↑ Back to top | Ruts Tabs for Babylons Burning. Lyrics for acoustic guitar and electric guitar. 1 Tablatures and chords are parodies/interpretations of the original songs. You may use it for private study, scholarship, research or language learning purposes only