» » »

Ruts, Dope For Guns Tabs (ver.1)

Artists:  A B C D E F G H I J K L M N O P Q R S T U V W X Y Z # 

Dope For Guns Tabs (ver.1)

Ruts Tabs
 Rating:
4/5 (4 votes)
Dope For Guns lessons Tabs too difficult? Try these video lessons and learn fast
                Band - The Ruts
Song - Dope For Guns
Album - The Crack


Tuning: Standard (E A D G B E)

Awesome Track By British Punk Legends.
R.I.P Paul Fox

.=Palm Mute
/\=Slides
b=Bend
(x)= Bend To The Note

Intro/Verse 1 & 3
|-55-55-33-33--|
|-55-55-33-33--|
|-55-55-44-44--|
|-77-77-55-55--|
|-77-77-55-55--|
|-55-55-33-33--|

Chorus 1
|------1-1-3---|
|------1-1-3---|
|------2-2-4---|
|------3-3-5---|
|-2222-3-3-5---|
|-0000-1-1-3---|
  ....

Verse 2
|-55-55-33-33--|
|-55-55-33-33--|
|-55-55-44-44--|
|-77-77-55-55--| x3
|-77-77-55-55--|
|-55-55-33-33--|

|--55-55------------------------------|
|--55-55------------------------------|
|--55-55--222------222-------222------|
|--77-77------3-2------3-2------3-2---|
|--77-77---------3---------3--------3-|
|--55-55------------------------------|

Chorus 2
|------1-1-3---|
|------1-1-3---|
|------2-2-4---| x3
|------3-3-5---|
|-2222-3-3-5---|
|-0000-1-1-3---|
  ....

|------1-1-3---|---------------------------|
|------1-1-3---|---------------------------|
|------2-2-4---|-222------222-----222------|
|------3-3-5---|----3-2------3-2-----3-2---|
|-2222-3-3-5---|--------3-------3-------3--|
|-0000-1-1-3---|---------------------------|
  ....

Bridge
|-----------------------|
|-----------------------|
|-4--2--6-5--9--7--4-5--|
|-4--2--6-5--9--7--4-5--|
|-2--0--4-3--7--5--2-3--|
|-----------------------|

Chorus 3
|------1-1-3---|
|------1-1-3---|
|------2-2-4---| x3
|------3-3-5---|
|-2222-3-3-5---|
|-0000-1-1-3---|

|------1-1-3---|---------------------------|
|------1-1-3---|---------------------------|
|------2-2-4---|-222------222-----222------| x3
|------3-3-5---|----3-2------3-2-----3-2---|
|-2222-3-3-5---|--------3-------3-------3--|
|-0000-1-1-3---|---------------------------|

Outro
|--------------|
|-5-----3------|
|-7b(9)-5b(7)--|
|--------------|
|--------------|
|--------------|

Outro Overdub
|------------|
|------------|
|-222--------|
|-----3-2----| x10
|---------3--|
|------------|

Structure
Intro x4
Verse 1 x4
Chorus 1 x4
Verse 2
Chorus 2
Bridge x 2
Verse 3 x4
Chorus 3
Outro x8 (Overdub Comes In After The 4th Repeat)

Brilliant Track!
Rate & Comment Please :)
            
Submit corrections

comments powered by Disqus
↑ Back to top | Ruts Tabs for Dope For Guns. Lyrics for acoustic guitar and electric guitar. Tablatures and chords are parodies/interpretations of the original songs. You may use it for private study, scholarship, research or language learning purposes only