>
 >
Empty Cell

Empty Cell Guitar Tabs

Rusty - Empty Cell chords, tabs, tablatures, lyrics

Guitar lessons | Add/correct | Request | Top 50 tabs Artists:  A B C D E F G H I J K L M N O P Q R S T U V W X Y Z 0-9

Empty Cell Guitar Tabs – Rusty

CD, Sheet music, Poster

Do you like Empty Cell? Share with your friends now
TabsTabs v2


Band: Rusty


Intro

Guitar I (acoustic)

  E
|-O---O-O--O---O---O---O---O---O-O--|-O---O-O--O---O---O---O---O---O-O--|
|-O---O-O--O---O---O---O---O---O-O--|-O---O-O--O---O---O---O---O---O-O--|
|-1---1-1--1---1---1---1---1---1-1--|-1---1-1--1---1---1---1---1---1-1--|
|-2---2-2--2---2---2---2---2---2-2--|-2---2-2--2---2---2---2---2---2-2--|
|-2---2-2--2---2---2---2---2---2-2--|-2---2-2--2---2---2---2---2---2-2--|
|-O---O-O--O---O---O---O---O---O-O--|-O---O-O--O---O---O---O---O---O-O--|
|									|
|Guitar II (electric)				                        |
|-----------------------------------|-----------------------------------|
|-----------------------------------|-----------------------------------|
|-----------------------------------|-----------------------------------|
|-6--6-6---7-7---9--9-9--11-11-11-9-|-6--6-6---7-7---9--9-9--11-11-11-9-|
|-----------------------------------|-----------------------------------|
|-----------------------------------|-----------------------------------|


|-O---O-O--O---O---O---O---O---O-O--|-O---O-O--O---O---O---O---O---O-O--|
|-O---O-O--O---O---O---O---O---O-O--|-O---O-O--O---O---O---O---O---O-O--|
|-1---1-1--1---1---1---1---1---1-1--|-1---1-1--1---1---1---1---1---1-1--|
|-2---2-2--2---2---2---2---2---2-2--|-2---2-2--2---2---2---2---2---2-2--|
|-2---2-2--2---2---2---2---2---2-2--|-2---2-2--2---2---2---2---2---2-2--|
|-O---O-O--O---O---O---O---O---O-O--|-O---O-O--O---O---O---O---O---O-O--|
|									|
|-----------------------------------|-----------------------------------|
|-----------------------------------|-----------------------------------|
|-----------------------------------|-----------------------------------|
|-6--6-6---7-7---9--9-9--11-11-11-9-|-6--6-6---7-7---9--9-9--11-11-11-9-|
|-----------------------------------|-----------------------------------|
|-----------------------------------|-----------------------------------|


1st Verse

  Pam_ says________                    she_ loves__ me______
  E
|-----------------------------------|-----------------------------------|
|-----------------------------------|-----------------------------------|
|-----------------------------------|-----------------------------------|
|-2---2-2--2---2---2---2---2---2-2--|-2---2-2--2---2---2---2---2---2-2--|
|-2---2-2--2---2---2---2---2---2-2--|-2---2-2--2---2---2---2---2---2-2--|
|-O---O-O--O---O---O---O---O---O-O--|-O---O-O--O---O---O---O---O---O-O--|
|									|
|P.M.-------------------|            P.M.-------------------|       ------|
|-----------------------------------|-------------------------------------|
|-----------------------------------|-------------------------------------|
|-----------------------------------|-------------------------------------|
|-------------------------9^H11^P9--|-------------------------9^H11^P9----|
|-9-11--9-11--9-11--9-11----------9-|-9-11--9-11--9-11--9-11----------9---|
|-----------------------------------|-------------------------------------|


  I'm_ lucky___  Guys_ like me___  don't_  get laid_     by girls like
|-----------------------------------|-----------------------------------|
|-----------------------------------|-----------------------------------|
|-----------------------------------|-----------------------------------|
|-2---2-2--2---2---2---2---2---2-2--|-2---2-2--2---2---2---2---2---2-2--|
|-2---2-2--2---2---2---2---2---2-2--|-2---2-2--2---2---2---2---2---2-2--|
|-O---O-O--O---O---O---O---O---O-O--|-O---O-O--O---O---O---O---O---O-O--|
|									|
|P.M.-------------------|            P.M.-------------------|      -------|
|-----------------------------------|-------------------------------------|
|-----------------------------------|-------------------------------------|
|-----------------------------------|-------------------------9-9-9-9-9---|
|-------------------------9^H11^P9--|-------------------------------------|
|-9-11--9-11--9-11--9-11----------9-|-9-11--9-11--9-11--9-11--------------|
|-----------------------------------|-------------------------------------|

  her___________						By girls
  A
|-----------------------------------|-----------------------------------|
|-2---2-2--2---2---2---2---2---2-2--|-2---2-2--2---2---2---2---2---2-2--|
|-2---2-2--2---2---2---2---2---2-2--|-2---2-2--2---2---2---2---2---2-2--|
|-2---2-2--2---2---2---2---2---2-2--|-2---2-2--2---2---2---2---2---2-2--|
|-O---O-O--O---O---O---O---O---O-O--|-O---O-O--O---O---O---O---O---O-O--|
|-----------------------------------|-----------------------------------|
|									|
|-----------------------------------|-----------------------------------|
|-----------------------------------|-----------------------------------|
|------------------------9-9-9-9-9--|------------------------9-9-9-9-9--|
|-9-11--9-11--9-11--9-11------------|-9-11--9-11--9-11--9-11------------|
|-----------------------------------|-----------------------------------|
|-----------------------------------|-----------------------------------|


 like her______
  E
|-----------------------------------|-----------------------------------|
|-----------------------------------|-----------------------------------|
|-----------------------------------|-----------------------------------|
|-2---2-2--2---2---2---2---2---2-2--|-2---2-2--2---2---2---2---2---2-2--|
|-2---2-2--2---2---2---2---2---2-2--|-2---2-2--2---2---2---2---2---2-2--|
|-O---O-O--O---O---O---O---O---O-O--|-O---O-O--O---O---O---O---O---O-O--|
|									|
|P.M.-------------------|            P.M.-------------------|        -----|
|-----------------------------------|-------------------------------------|
|-----------------------------------|-------------------------------------|
|-----------------------------------|-------------------------------------|
|-------------------------9^H11^P9--|-------------------------9^H11^P9----|
|-9-11--9-11--9-11--9-11----------9-|-9-11--9-11--9-11--9-11----------9---|
|-----------------------------------|-------------------------------------|


1st Chorus

  She says__ we'll be to-gether now_ Sittin alone in my empty cell____
  F#         A             E          C#         A             E
|-----------------------------------|-----------------------------------|
|-----------------------------------|-----------------------------------|
|--------------------------2--2-2-2-|-6---6-6-6--2---2-2---2------------|
|-4---4-4-4--7---7-7---7---2--2-2-2-|-6---6-6-6--2---2-2---2---2--2-2-2-|
|-4---4-4-4--7---7-7---7---O--O-O-O-|-4---4-4-4--O---O-O---O---2--2-2-2-|
|-2---2-2-2--5---5-5---5------------|--------------------------O--O-O-O-|
|                                                                       |
|(w/ distortion)	     	                            		|
|-----------------------------------|-----------------------------------|
|-----------------------------------|-----------------------------------|
|-----------------------------------|-6---6-6-6--2---2-2---2------------|
|-4---4-4-4--7---7-7---7---2--------|-6---6-6-6--2---2-2---2---2--2-2-2-|
|-4---4-4-4--7---7-7---7---2--*9-11-|-4---4-4-4--O---O-O---O---2--2-2-2-|
|-2---2-2-2--5---5-5---5---O--------|--------------------------O--O-O-O-|
                              *means play 3X
                               like this: (-9-11-9-11-9-11-)

  E
|-O---O-O--O---O---O---O---O---O-O--|-O---O-O--O---O---O---O---O---O-O--|
|-O---O-O--O---O---O---O---O---O-O--|-O---O-O--O---O---O---O---O---O-O--|
|-1---1-1--1---1---1---1---1---1-1--|-1---1-1--1---1---1---1---1---1-1--|
|-2---2-2--2---2---2---2---2---2-2--|-2---2-2--2---2---2---2---2---2-2--|
|-2---2-2--2---2---2---2---2---2-2--|-2---2-2--2---2---2---2---2---2-2--|
|-O---O-O--O---O---O---O---O---O-O--|-O---O-O--O---O---O---O---O---O-O--|
|									|
|-----------------------------------|-----------------------------------|
|-----------------------------------|-----------------------------------|
|-----------------------------------|-----------------------------------|
|-6--6-6---7-7---9--9-9--11-11-11-9-|-6--6-6---7-7---9--9-9--11-11-11-9-|
|-----------------------------------|-----------------------------------|
|-----------------------------------|-----------------------------------|

2nd Verse

   She__  said_____                  she_  needs___  me____
  E
|-----------------------------------|-----------------------------------|
|-----------------------------------|-----------------------------------|
|-----------------------------------|-----------------------------------|
|-2---2-2--2---2---2---2---2---2-2--|-2---2-2--2---2---2---2---2---2-2--|
|-2---2-2--2---2---2---2---2---2-2--|-2---2-2--2---2---2---2---2---2-2--|
|-O---O-O--O---O---O---O---O---O-O--|-O---O-O--O---O---O---O---O---O-O--|
|									|
|P.M.-------------------|            P.M.-------------------|        -----|
|-----------------------------------|-------------------------------------|
|-----------------------------------|-------------------------------------|
|-----------------------------------|-------------------------------------|
|-------------------------9^H11^P9--|-------------------------9^H11^P9----|
|-9-11--9-11--9-11--9-11----------9-|-9-11--9-11--9-11--9-11----------9---|
|-----------------------------------|-------------------------------------|


  I picture_ her face no more___     She don't call_ after all I've done_
|-----------------------------------|-----------------------------------|
|-----------------------------------|-----------------------------------|
|-----------------------------------|-----------------------------------|
|-2---2-2--2---2---2---2---2---2-2--|-2---2-2--2---2---2---2---2---2-2--|
|-2---2-2--2---2---2---2---2---2-2--|-2---2-2--2---2---2---2---2---2-2--|
|-O---O-O--O---O---O---O---O---O-O--|-O---O-O--O---O---O---O---O---O-O--|
|									|
|P.M.-------------------|            P.M.-------------------|      -------|
|-----------------------------------|-------------------------------------|
|-----------------------------------|-------------------------------------|
|-----------------------------------|-------------------------------------|
|-------------------------9^H11^P9--|------------------------9^H11^P9-----|
|-9-11--9-11--9-11--9-11----------9-|-9-11--9-11--9-11--9-11----------9---|
|-----------------------------------|-------------------------------------|


  for her_______ 				                 All I've done
  A
|-----------------------------------|-----------------------------------|
|-2---2-2--2---2---2---2---2---2-2--|-2---2-2--2---2---2---2---2---2-2--|
|-2---2-2--2---2---2---2---2---2-2--|-2---2-2--2---2---2---2---2---2-2--|
|-2---2-2--2---2---2---2---2---2-2--|-2---2-2--2---2---2---2---2---2-2--|
|-O---O-O--O---O---O---O---O---O-O--|-O---O-O--O---O---O---O---O---O-O--|
|-----------------------------------|-----------------------------------|
|									|
|-----------------------------------|-----------------------------------|
|-----------------------------------|-----------------------------------|
|------------------------9-9-9-9-9--|------------------------9-9-9-9-9--|
|-9-11--9-11--9-11--9-11------------|-9-11--9-11--9-11--9-11------------|
|-----------------------------------|-----------------------------------|
|-----------------------------------|-----------------------------------|


 for    her__________
  E
|-----------------------------------|-----------------------------------|
|-----------------------------------|-----------------------------------|
|-----------------------------------|-----------------------------------|
|-2---2-2--2---2---2---2---2---2-2--|-2---2-2--2---2---2---2---2---2-2--|
|-2---2-2--2---2---2---2---2---2-2--|-2---2-2--2---2---2---2---2---2-2--|
|-O---O-O--O---O---O---O---O---O-O--|-O---O-O--O---O---O---O---O---O-O--|
|									|
|P.M.-------------------|            P.M.-------------------|      -------|
|-----------------------------------|-------------------------------------|
|-----------------------------------|-------------------------------------|
|-----------------------------------|-------------------------------------|
|-------------------------9^H11^P9--|-------------------------9^H11^P9----|
|-9-11--9-11--9-11--9-11----------9-|-9-11--9-11--9-11--9-11----------9---|
|-----------------------------------|-------------------------------------|


2nd Chorus

  She says__ we'll be to-gether now_ Sittin alone in my empty cell____
  F#         A             E          C#         A             E
|-----------------------------------|-----------------------------------|
|-----------------------------------|-----------------------------------|
|-----------------------------------|-6---6-6-6--2---2-2---2------------|
|-4---4-4-4--7---7-7---7---2--2-2-2-|-6---6-6-6--2---2-2---2---2--2-2-2-|
|-4---4-4-4--7---7-7---7---2--2-2-2-|-4---4-4-4--O---O-O---O---2--2-2-2-|
|-2---2-2-2--5---5-5---5---O--O-O-O-|--------------------------O--O-O-O-|
|                                                                       |
|(w/ distortion)	     	                            		|
|-----------------------------------|-----------------------------------|
|-----------------------------------|-----------------------------------|
|--------------------------2--------|-6---6-6-6--2---2-2---2------------|
|-4---4-4-4--7---7-7---7---2--------|-6---6-6-6--2---2-2---2---2--------|
|-4---4-4-4--7---7-7---7---O--*9-11-|-4---4-4-4--O---O-O---O---2--*9-11-|
|-2---2-2-2--5---5-5---5------------|--------------------------O--------|


My heart is broke and I can't
                        hear a sound_ Sittin alone in my empty cell____
  F#         A             E          C#         A             E
|-----------------------------------|-----------------------------------|
|-----------------------------------|-----------------------------------|
|-----------------------------------|-6---6-6-6--2---2-2---2------------|
|-4---4-4-4--7---7-7---7---2--2-2-2-|-6---6-6-6--2---2-2---2---2--2-2-2-|
|-4---4-4-4--7---7-7---7---2--2-2-2-|-4---4-4-4--O---O-O---O---2--2-2-2-|
|-2---2-2-2--5---5-5---5---O--O-O-O-|--------------------------O--O-O-O-|
|                                                                       |
|-----------------------------------|-----------------------------------|
|-----------------------------------|-----------------------------------|
|-----------------------------------|-6---6-6-6--2---2-2---2------------|
|-4---4-4-4--7---7-7---7---2--------|-6---6-6-6--2---2-2---2---2--2-2-2-|
|-4---4-4-4--7---7-7---7---2--*9-11-|-4---4-4-4--O---O-O---O---2--2-2-2-|
|-2---2-2-2--5---5-5---5---O--------|--------------------------O--O-O-O-|


Solo

  E
|-O---O-O--O---O---O---O---O---O-O--|-O---O-O--O---O---O---O---O---O-O--|
|-O---O-O--O---O---O---O---O---O-O--|-O---O-O--O---O---O---O---O---O-O--|
|-1---1-1--1---1---1---1---1---1-1--|-1---1-1--1---1---1---1---1---1-1--|
|-2---2-2--2---2---2---2---2---2-2--|-2---2-2--2---2---2---2---2---2-2--|
|-2---2-2--2---2---2---2---2---2-2--|-2---2-2--2---2---2---2---2---2-2--|
|-O---O-O--O---O---O---O---O---O-O--|-O---O-O--O---O---O---O---O---O-O--|
|									|
|(w/ distortion)	    Full bend                        1/2   Full |
|-----------------------------------|-----------------------------------|
|-9-9-1O--9-9-1O--9-9-1O--9-9-12^---|-9-9-1O--9-9-1O--9-9-1O--7^-(7)-7^-|
|-----------------------------------|-----------------------------------|
|-----------------------------------|-----------------------------------|
|-----------------------------------|-----------------------------------|
|-----------------------------------|-----------------------------------|

|-O---O-O--O---O---O---O---O---O-O--|-O---O-O--O---O---O---O---O---O-O--|
|-O---O-O--O---O---O---O---O---O-O--|-O---O-O--O---O---O---O---O---O-O--|
|-1---1-1--1---1---1---1---1---1-1--|-1---1-1--1---1---1---1---1---1-1--|
|-2---2-2--2---2---2---2---2---2-2--|-2---2-2--2---2---2---2---2---2-2--|
|-2---2-2--2---2---2---2---2---2-2--|-2---2-2--2---2---2---2---2---2-2--|
|-O---O-O--O---O---O---O---O---O-O--|-O---O-O--O---O---O---O---O---O-O--|
|									|
|		              Full                  |-- Full --|        |
|-----------------------------------|-----------------------------------|
|-9-9-1O--9-9-1O--9-9-1O--9-9-12^---|-9-9-1O-9-1O-9--7^--7^--7^p5~~~~~--|
|-----------------------------------|-----------------------------------|
|-----------------------------------|-----------------------------------|
|-----------------------------------|-----------------------------------|
|-----------------------------------|-----------------------------------|

3rd Verse

  My__ skin_ crawls______             I__   killed__  him______
  E
|-----------------------------------|-----------------------------------|
|-----------------------------------|-----------------------------------|
|-----------------------------------|-----------------------------------|
|-2---2-2--2---2---2---2---2---2-2--|-2---2-2--2---2---2---2---2---2-2--|
|-2---2-2--2---2---2---2---2---2-2--|-2---2-2--2---2---2---2---2---2-2--|
|-O---O-O--O---O---O---O---O---O-O--|-O---O-O--O---O---O---O---O---O-O--|
|									|
|P.M.-------------------|            P.M.-------------------|        -----|
|-----------------------------------|-------------------------------------|
|-----------------------------------|-------------------------------------|
|-----------------------------------|-------------------------------------|
|-------------------------9^H11^P9--|-------------------------9^H11^P9----|
|-9-11--9-11--9-11--9-11----------9-|-9-11--9-11--9-11--9-11----------9---|
|-----------------------------------|-------------------------------------|


I'd do it again_ if I thought that I_ could spend the rest of my life_
|-----------------------------------|-----------------------------------|
|-----------------------------------|-----------------------------------|
|-----------------------------------|-----------------------------------|
|-2---2-2--2---2---2---2---2---2-2--|-2---2-2--2---2---2---2---2---2-2--|
|-2---2-2--2---2---2---2---2---2-2--|-2---2-2--2---2---2---2---2---2-2--|
|-O---O-O--O---O---O---O---O---O-O--|-O---O-O--O---O---O---O---O---O-O--|
|									|
|P.M.-------------------|            P.M.-------------------|      -------|
|-----------------------------------|-------------------------------------|
|-----------------------------------|-------------------------------------|
|-----------------------------------|-------------------------------------|
|-------------------------9^H11^P9--|-------------------------9-9-9-9-9---|
|-9-11--9-11--9-11--9-11----------9-|-9-11--9-11--9-11--9-11--------------|
|-----------------------------------|-------------------------------------|


 with   her_______ 				         Of my life_
  A
|-----------------------------------|-----------------------------------|
|-2---2-2--2---2---2---2---2---2-2--|-2---2-2--2---2---2---2---2---2-2--|
|-2---2-2--2---2---2---2---2---2-2--|-2---2-2--2---2---2---2---2---2-2--|
|-2---2-2--2---2---2---2---2---2-2--|-2---2-2--2---2---2---2---2---2-2--|
|-O---O-O--O---O---O---O---O---O-O--|-O---O-O--O---O---O---O---O---O-O--|
|-----------------------------------|-----------------------------------|
|									|
|-----------------------------------|-----------------------------------|
|-----------------------------------|-----------------------------------|
|------------------------9-9-9-9-9--|------------------------9-9-9-9-9--|
|-9-11--9-11--9-11--9-11------------|-9-11--9-11--9-11--9-11------------|
|-----------------------------------|-----------------------------------|
|-----------------------------------|-----------------------------------|


   with her__________
  E
|-----------------------------------|-----------------------------------|
|-----------------------------------|-----------------------------------|
|-----------------------------------|-----------------------------------|
|-2---2-2--2---2---2---2---2---2-2--|-2---2-2--2---2---2---2---2---2-2--|
|-2---2-2--2---2---2---2---2---2-2--|-2---2-2--2---2---2---2---2---2-2--|
|-O---O-O--O---O---O---O---O---O-O--|-O---O-O--O---O---O---O---O---O-O--|
|									|
|P.M.-------------------|            P.M.-------------------|        -----|
|-----------------------------------|-------------------------------------|
|-----------------------------------|-------------------------------------|
|-----------------------------------|-------------------------------------|
|-------------------------9^H11^P9--|-------------------------9^H11^P9----|
|-9-11--9-11--9-11--9-11----------9-|-9-11--9-11--9-11--9-11----------9---|
|-----------------------------------|-------------------------------------|


3rd Chorus

  She says__ we'll be to-gether now_ Sittin alone in my empty cell____
  F#         A             E          C#         A             E
|-----------------------------------|-----------------------------------|
|-----------------------------------|-----------------------------------|
|-----------------------------------|-6---6-6-6--2---2-2---2------------|
|-4---4-4-4--7---7-7---7---2--2-2-2-|-6---6-6-6--2---2-2---2---2--2-2-2-|
|-4---4-4-4--7---7-7---7---2--2-2-2-|-4---4-4-4--O---O-O---O---2--2-2-2-|
|-2---2-2-2--5---5-5---5---O--O-O-O-|--------------------------O--O-O-O-|
|                                                                       |
|(w/ distortion)	     	                            		|
|-----------------------------------|-----------------------------------|
|-----------------------------------|-----------------------------------|
|--------------------------2--------|-6---6-6-6--2---2-2---2------------|
|-4---4-4-4--7---7-7---7---2--------|-6---6-6-6--2---2-2---2---2--------|
|-4---4-4-4--7---7-7---7---O--*9-11-|-4---4-4-4--O---O-O---O---2--*9-11-|
|-2---2-2-2--5---5-5---5------------|--------------------------O--------|


My heart is broke and I can't
                        hear a sound_ Sittin alone in my empty cell____
  F#         A             E          C#         A             E
|-----------------------------------|-----------------------------------|
|-----------------------------------|-----------------------------------|
|-----------------------------------|-6---6-6-6--2---2-2---2------------|
|-4---4-4-4--7---7-7---7---2--2-2-2-|-6---6-6-6--2---2-2---2---2--2-2-2-|
|-4---4-4-4--7---7-7---7---2--2-2-2-|-4---4-4-4--O---O-O---O---2--2-2-2-|
|-2---2-2-2--5---5-5---5---O--O-O-O-|--------------------------O--O-O-O-|
|                                                                       |
|-----------------------------------|-----------------------------------|
|-----------------------------------|-----------------------------------|
|-----------------------------------|-6---6-6-6--2---2-2---2------------|
|-4---4-4-4--7---7-7---7---2--------|-6---6-6-6--2---2-2---2---2--2-2-2-|
|-4---4-4-4--7---7-7---7---2--*9-11-|-4---4-4-4--O---O-O---O---2--2-2-2-|
|-2---2-2-2--5---5-5---5---O--------|--------------------------O--O-O-O-|

|-----------------------------------|-----------------------------------|
|-----------------------------------|-----------------------------------|
|-----------------------------------|-----------------------------------|
|-2---------------------------------|-----------------------------------|
|-2---------------------------------|-----------------------------------|
|-O---------------------------------|-----------------------------------|
|									|
|-----------------------------------|--------------------------7-----5--|
|-----------------------------------|-----------------------------------|
|-----------------------------------|--------------------6-\-8----6-----|
|-2---------------------------------|-----------------------------------|
|-2---------------------------------|---O-------------------------------|
|-O---------------------------------|----------X-X----------------------|
		      Mute after picking^

-----------------------------------------------------------------------------

Lyrics
-------
1st verse:

Pam says she loves me
I'm lucky
Guys like me, don't get laid
By girls like her
By girls like her

1st chorus:

She says we'll be together now
Sittin alone in my empty cell

2nd verse:

She said she needs me
I picture her face no more
She don't call
After all I've done for her
All I've done for her

2nd chorus:

She says we'll be together now
Sittin alone in my empty cell
My heart is broken, I can't hear a sound
Sittin alone in my empty cell

3rd verse:

My skin crawls, I killed him
I'd do it again if I thought that I could spend the rest
Of my life with her
Of my life with her

3rd chorus:

She says we'll be together now
Sittin alone in my empty cell
My heart is broke, and I can't hear a sound
Sittin alone in my empty cell





Comments


Popular Rusty tabs & chords
Groovy Dead Bass Tabs
Groovy Dead Chords
Misogyny Chords
California Tabs
California 1 Tabs
Empty Cell 1 Tabs
Groovy Dead Tabs
Memories Tabs
Misogyny Tabs
Wake Me 1 Tabs


Song lyrics



↑ Back to top | Tablatures and chords are parodies/interpretations of the original songs. You may use it for private study, scholarship, research or language learning purposes only
© 2014 AZChords.com Contact us | Privacy policy | DMCA | Add/correct tabs | Request tabs | Top 50 tabs